  0
SECTION
  2
HEADER
  9
$ACADVER
  1
AC1009
  9
$EXTMIN
 10
0.0
 20
0.0
 30
0.0
  9
$EXTMAX
 10
1000.0
 20
1000.0
 30
0.0
  9
$FILLMODE
 70
 0
  9
$SPLFRAME
 70
 1
  0
ENDSEC
  0
SECTION
  2
TABLES
  0
TABLE
  2
LAYER
 70
1
  0
LAYER
  2
0
 70
     0
 62
     7
  6
CONTINUOUS
  0
ENDTAB
  0
ENDSEC
  0
SECTION
  2
ENTITIES
  0
LINE
  8
0
 62
     0
 10
1.96039
 20
5.12744
 30
0.0
 11
2.08589
 21
5.66982
 31
0.0
  0
LINE
  8
0
 62
     0
 10
2.08589
 20
5.66982
 30
0.0
 11
2.31054
 21
6.16769
 31
0.0
  0
LINE
  8
0
 62
     0
 10
2.31054
 20
6.16769
 30
0.0
 11
2.62842
 21
6.61079
 31
0.0
  0
LINE
  8
0
 62
     0
 10
2.62842
 20
6.61079
 30
0.0
 11
3.0319
 21
6.98785
 31
0.0
  0
LINE
  8
0
 62
     0
 10
3.0319
 20
6.98785
 30
0.0
 11
4.97894
 21
8.45432
 31
0.0
  0
LINE
  8
0
 62
     0
 10
4.97894
 20
8.45432
 30
0.0
 11
6.92617
 21
9.92085
 31
0.0
  0
LINE
  8
0
 62
     0
 10
6.92617
 20
9.92085
 30
0.0
 11
8.87299
 21
11.3884
 31
0.0
  0
LINE
  8
0
 62
     0
 10
8.87299
 20
11.3884
 30
0.0
 11
10.82
 21
12.855
 31
0.0
  0
LINE
  8
0
 62
     0
 10
10.82
 20
12.855
 30
0.0
 11
11.2084
 21
13.1052
 31
0.0
  0
LINE
  8
0
 62
     0
 10
11.2084
 20
13.1052
 30
0.0
 11
11.6272
 21
13.2866
 31
0.0
  0
LINE
  8
0
 62
     0
 10
11.6272
 20
13.2866
 30
0.0
 11
12.0687
 21
13.3985
 31
0.0
  0
LINE
  8
0
 62
     0
 10
12.0687
 20
13.3985
 30
0.0
 11
12.5285
 21
13.4354
 31
0.0
  0
LINE
  8
0
 62
     0
 10
12.5285
 20
13.4354
 30
0.0
 11
13.1755
 21
13.3612
 31
0.0
  0
LINE
  8
0
 62
     0
 10
13.1755
 20
13.3612
 30
0.0
 11
13.777
 21
13.1449
 31
0.0
  0
LINE
  8
0
 62
     0
 10
13.777
 20
13.1449
 30
0.0
 11
14.3128
 21
12.799
 31
0.0
  0
LINE
  8
0
 62
     0
 10
14.3128
 20
12.799
 30
0.0
 11
14.7637
 21
12.3321
 31
0.0
  0
LINE
  8
0
 62
     0
 10
14.7637
 20
12.3321
 30
0.0
 11
15.2528
 21
11.3284
 31
0.0
  0
LINE
  8
0
 62
     0
 10
15.2528
 20
11.3284
 30
0.0
 11
15.3176
 21
10.2532
 31
0.0
  0
LINE
  8
0
 62
     0
 10
15.3176
 20
10.2532
 30
0.0
 11
14.975
 21
9.23112
 31
0.0
  0
LINE
  8
0
 62
     0
 10
14.975
 20
9.23112
 30
0.0
 11
14.244
 21
8.39432
 31
0.0
  0
LINE
  8
0
 62
     0
 10
14.244
 20
8.39432
 30
0.0
 11
12.297
 21
6.92811
 31
0.0
  0
LINE
  8
0
 62
     0
 10
12.297
 20
6.92811
 30
0.0
 11
10.35
 21
5.46039
 31
0.0
  0
LINE
  8
0
 62
     0
 10
10.35
 20
5.46039
 30
0.0
 11
8.40489
 21
3.99029
 31
0.0
  0
LINE
  8
0
 62
     0
 10
8.40489
 20
3.99029
 30
0.0
 11
6.45768
 21
2.52328
 31
0.0
  0
LINE
  8
0
 62
     0
 10
6.45768
 20
2.52328
 30
0.0
 11
6.07047
 21
2.2736
 31
0.0
  0
LINE
  8
0
 62
     0
 10
6.07047
 20
2.2736
 30
0.0
 11
5.65369
 21
2.09375
 31
0.0
  0
LINE
  8
0
 62
     0
 10
5.65369
 20
2.09375
 30
0.0
 11
5.21121
 21
1.98335
 31
0.0
  0
LINE
  8
0
 62
     0
 10
5.21121
 20
1.98335
 30
0.0
 11
4.75054
 21
1.94586
 31
0.0
  0
LINE
  8
0
 62
     0
 10
4.75054
 20
1.94586
 30
0.0
 11
4.10444
 21
2.02013
 31
0.0
  0
LINE
  8
0
 62
     0
 10
4.10444
 20
2.02013
 30
0.0
 11
3.5031
 21
2.23438
 31
0.0
  0
LINE
  8
0
 62
     0
 10
3.5031
 20
2.23438
 30
0.0
 11
2.96718
 21
2.57986
 31
0.0
  0
LINE
  8
0
 62
     0
 10
2.96718
 20
2.57986
 30
0.0
 11
2.51497
 21
3.04688
 31
0.0
  0
LINE
  8
0
 62
     0
 10
2.51497
 20
3.04688
 30
0.0
 11
2.222
 21
3.5191
 31
0.0
  0
LINE
  8
0
 62
     0
 10
2.222
 20
3.5191
 30
0.0
 11
2.02875
 21
4.03125
 31
0.0
  0
LINE
  8
0
 62
     0
 10
2.02875
 20
4.03125
 30
0.0
 11
1.94021
 21
4.57362
 31
0.0
  0
LINE
  8
0
 62
     0
 10
1.94021
 20
4.57362
 30
0.0
 11
1.96039
 21
5.12744
 31
0.0
  0
LINE
  8
0
 62
     0
 10
1.96039
 20
5.12744
 30
0.0
 11
1.96039
 21
5.12744
 31
0.0
  0
LINE
  8
0
 62
     0
 10
17.1013
 20
27.3286
 30
0.0
 11
17.7664
 21
30.1819
 31
0.0
  0
LINE
  8
0
 62
     0
 10
17.7664
 20
30.1819
 30
0.0
 11
18.9586
 21
32.8118
 31
0.0
  0
LINE
  8
0
 62
     0
 10
18.9586
 20
32.8118
 30
0.0
 11
20.6439
 21
35.1567
 31
0.0
  0
LINE
  8
0
 62
     0
 10
20.6439
 20
35.1567
 30
0.0
 11
22.7872
 21
37.156
 31
0.0
  0
LINE
  8
0
 62
     0
 10
22.7872
 20
37.156
 30
0.0
 11
25.7836
 21
38.93
 31
0.0
  0
LINE
  8
0
 62
     0
 10
25.7836
 20
38.93
 30
0.0
 11
29.0789
 21
39.9501
 31
0.0
  0
LINE
  8
0
 62
     0
 10
29.0789
 20
39.9501
 30
0.0
 11
32.5199
 21
40.1899
 31
0.0
  0
LINE
  8
0
 62
     0
 10
32.5199
 20
40.1899
 30
0.0
 11
35.96
 21
39.6189
 31
0.0
  0
LINE
  8
0
 62
     0
 10
35.96
 20
39.6189
 30
0.0
 11
38.166
 21
38.7844
 31
0.0
  0
LINE
  8
0
 62
     0
 10
38.166
 20
38.7844
 30
0.0
 11
40.1907
 21
37.6233
 31
0.0
  0
LINE
  8
0
 62
     0
 10
40.1907
 20
37.6233
 30
0.0
 11
42.0067
 21
36.1529
 31
0.0
  0
LINE
  8
0
 62
     0
 10
42.0067
 20
36.1529
 30
0.0
 11
43.5861
 21
34.3943
 31
0.0
  0
LINE
  8
0
 62
     0
 10
43.5861
 20
34.3943
 30
0.0
 11
46.165
 21
29.1031
 31
0.0
  0
LINE
  8
0
 62
     0
 10
46.165
 20
29.1031
 30
0.0
 11
46.506
 21
23.4238
 31
0.0
  0
LINE
  8
0
 62
     0
 10
46.506
 20
23.4238
 30
0.0
 11
44.6962
 21
18.03
 31
0.0
  0
LINE
  8
0
 62
     0
 10
44.6962
 20
18.03
 30
0.0
 11
40.8257
 21
13.5955
 31
0.0
  0
LINE
  8
0
 62
     0
 10
40.8257
 20
13.5955
 30
0.0
 11
37.8289
 21
11.8204
 31
0.0
  0
LINE
  8
0
 62
     0
 10
37.8289
 20
11.8204
 30
0.0
 11
34.5344
 21
10.8001
 31
0.0
  0
LINE
  8
0
 62
     0
 10
34.5344
 20
10.8001
 30
0.0
 11
31.0919
 21
10.5604
 31
0.0
  0
LINE
  8
0
 62
     0
 10
31.0919
 20
10.5604
 30
0.0
 11
27.6519
 21
11.1314
 31
0.0
  0
LINE
  8
0
 62
     0
 10
27.6519
 20
11.1314
 30
0.0
 11
25.4469
 21
11.9669
 31
0.0
  0
LINE
  8
0
 62
     0
 10
25.4469
 20
11.9669
 30
0.0
 11
23.4229
 21
13.1279
 31
0.0
  0
LINE
  8
0
 62
     0
 10
23.4229
 20
13.1279
 30
0.0
 11
21.6079
 21
14.5982
 31
0.0
  0
LINE
  8
0
 62
     0
 10
21.6079
 20
14.5982
 30
0.0
 11
20.0274
 21
16.3587
 31
0.0
  0
LINE
  8
0
 62
     0
 10
20.0274
 20
16.3587
 30
0.0
 11
18.481
 21
18.8472
 31
0.0
  0
LINE
  8
0
 62
     0
 10
18.481
 20
18.8472
 30
0.0
 11
17.4656
 21
21.5499
 31
0.0
  0
LINE
  8
0
 62
     0
 10
17.4656
 20
21.5499
 30
0.0
 11
16.9992
 21
24.3999
 31
0.0
  0
LINE
  8
0
 62
     0
 10
16.9992
 20
24.3999
 30
0.0
 11
17.1013
 21
27.3286
 31
0.0
  0
LINE
  8
0
 62
     0
 10
17.1013
 20
27.3286
 30
0.0
 11
17.1013
 21
27.3286
 31
0.0
  0
LINE
  8
0
 62
     0
 10
4.75054
 20
-0
 30
0.0
 11
5.52908
 21
0.0628256
 31
0.0
  0
LINE
  8
0
 62
     0
 10
5.52908
 20
0.0628256
 30
0.0
 11
6.27593
 21
0.248589
 31
0.0
  0
LINE
  8
0
 62
     0
 10
6.27593
 20
0.248589
 30
0.0
 11
6.98107
 21
0.554144
 31
0.0
  0
LINE
  8
0
 62
     0
 10
6.98107
 20
0.554144
 30
0.0
 11
7.63396
 21
0.974989
 31
0.0
  0
LINE
  8
0
 62
     0
 10
7.63396
 20
0.974989
 30
0.0
 11
9.581
 21
2.442
 31
0.0
  0
LINE
  8
0
 62
     0
 10
9.581
 20
2.442
 30
0.0
 11
11.5282
 21
3.90728
 31
0.0
  0
LINE
  8
0
 62
     0
 10
11.5282
 20
3.90728
 30
0.0
 11
13.4752
 21
5.37397
 31
0.0
  0
LINE
  8
0
 62
     0
 10
13.4752
 20
5.37397
 30
0.0
 11
15.4224
 21
6.84169
 31
0.0
  0
LINE
  8
0
 62
     0
 10
15.4224
 20
6.84169
 30
0.0
 11
16.3319
 21
7.75694
 31
0.0
  0
LINE
  8
0
 62
     0
 10
16.3319
 20
7.75694
 30
0.0
 11
16.9432
 21
8.84733
 31
0.0
  0
LINE
  8
0
 62
     0
 10
16.9432
 20
8.84733
 30
0.0
 11
17.2475
 21
10.0426
 31
0.0
  0
LINE
  8
0
 62
     0
 10
17.2475
 20
10.0426
 30
0.0
 11
17.2381
 21
11.2779
 31
0.0
  0
LINE
  8
0
 62
     0
 10
17.2381
 20
11.2779
 30
0.0
 11
17.4579
 21
10.9907
 31
0.0
  0
LINE
  8
0
 62
     0
 10
17.4579
 20
10.9907
 30
0.0
 11
17.6786
 21
10.7031
 31
0.0
  0
LINE
  8
0
 62
     0
 10
17.6786
 20
10.7031
 30
0.0
 11
17.8983
 21
10.416
 31
0.0
  0
LINE
  8
0
 62
     0
 10
17.8983
 20
10.416
 30
0.0
 11
18.1193
 21
10.1273
 31
0.0
  0
LINE
  8
0
 62
     0
 10
18.1193
 20
10.1273
 30
0.0
 11
18.7101
 21
10.5811
 31
0.0
  0
LINE
  8
0
 62
     0
 10
18.7101
 20
10.5811
 30
0.0
 11
19.3022
 21
11.0344
 31
0.0
  0
LINE
  8
0
 62
     0
 10
19.3022
 20
11.0344
 30
0.0
 11
19.8932
 21
11.4874
 31
0.0
  0
LINE
  8
0
 62
     0
 10
19.8932
 20
11.4874
 30
0.0
 11
20.4851
 21
11.9401
 31
0.0
  0
LINE
  8
0
 62
     0
 10
20.4851
 20
11.9401
 30
0.0
 11
21.9353
 21
10.8384
 31
0.0
  0
LINE
  8
0
 62
     0
 10
21.9353
 20
10.8384
 30
0.0
 11
23.4922
 21
9.89512
 31
0.0
  0
LINE
  8
0
 62
     0
 10
23.4922
 20
9.89512
 30
0.0
 11
25.1471
 21
9.11686
 31
0.0
  0
LINE
  8
0
 62
     0
 10
25.1471
 20
9.11686
 30
0.0
 11
26.8907
 21
8.5096
 31
0.0
  0
LINE
  8
0
 62
     0
 10
26.8907
 20
8.5096
 30
0.0
 11
30.9628
 21
7.83365
 31
0.0
  0
LINE
  8
0
 62
     0
 10
30.9628
 20
7.83365
 30
0.0
 11
35.0368
 21
8.11735
 31
0.0
  0
LINE
  8
0
 62
     0
 10
35.0368
 20
8.11735
 30
0.0
 11
38.9372
 21
9.3271
 31
0.0
  0
LINE
  8
0
 62
     0
 10
38.9372
 20
9.3271
 30
0.0
 11
42.4851
 21
11.4294
 31
0.0
  0
LINE
  8
0
 62
     0
 10
42.4851
 20
11.4294
 30
0.0
 11
47.0694
 21
16.6789
 31
0.0
  0
LINE
  8
0
 62
     0
 10
47.0694
 20
16.6789
 30
0.0
 11
49.2125
 21
23.0639
 31
0.0
  0
LINE
  8
0
 62
     0
 10
49.2125
 20
23.0639
 30
0.0
 11
48.8111
 21
29.789
 31
0.0
  0
LINE
  8
0
 62
     0
 10
48.8111
 20
29.789
 30
0.0
 11
45.7562
 21
36.054
 31
0.0
  0
LINE
  8
0
 62
     0
 10
45.7562
 20
36.054
 30
0.0
 11
43.8854
 21
38.1371
 31
0.0
  0
LINE
  8
0
 62
     0
 10
43.8854
 20
38.1371
 30
0.0
 11
41.7354
 21
39.8767
 31
0.0
  0
LINE
  8
0
 62
     0
 10
41.7354
 20
39.8767
 30
0.0
 11
39.3382
 21
41.2519
 31
0.0
  0
LINE
  8
0
 62
     0
 10
39.3382
 20
41.2519
 30
0.0
 11
36.726
 21
42.2396
 31
0.0
  0
LINE
  8
0
 62
     0
 10
36.726
 20
42.2396
 30
0.0
 11
32.6538
 21
42.9153
 31
0.0
  0
LINE
  8
0
 62
     0
 10
32.6538
 20
42.9153
 30
0.0
 11
28.579
 21
42.6318
 31
0.0
  0
LINE
  8
0
 62
     0
 10
28.579
 20
42.6318
 30
0.0
 11
24.6789
 21
41.4233
 31
0.0
  0
LINE
  8
0
 62
     0
 10
24.6789
 20
41.4233
 30
0.0
 11
21.1312
 21
39.3219
 31
0.0
  0
LINE
  8
0
 62
     0
 10
21.1312
 20
39.3219
 30
0.0
 11
18.5932
 21
36.9551
 31
0.0
  0
LINE
  8
0
 62
     0
 10
18.5932
 20
36.9551
 30
0.0
 11
16.5976
 21
34.179
 31
0.0
  0
LINE
  8
0
 62
     0
 10
16.5976
 20
34.179
 30
0.0
 11
15.1843
 21
31.0654
 31
0.0
  0
LINE
  8
0
 62
     0
 10
15.1843
 20
31.0654
 30
0.0
 11
14.3956
 21
27.686
 31
0.0
  0
LINE
  8
0
 62
     0
 10
14.3956
 20
27.686
 30
0.0
 11
14.2406
 21
25.1653
 31
0.0
  0
LINE
  8
0
 62
     0
 10
14.2406
 20
25.1653
 30
0.0
 11
14.4432
 21
22.6821
 31
0.0
  0
LINE
  8
0
 62
     0
 10
14.4432
 20
22.6821
 30
0.0
 11
14.9951
 21
20.2664
 31
0.0
  0
LINE
  8
0
 62
     0
 10
14.9951
 20
20.2664
 30
0.0
 11
15.886
 21
17.95
 31
0.0
  0
LINE
  8
0
 62
     0
 10
15.886
 20
17.95
 30
0.0
 11
15.291
 21
17.4981
 31
0.0
  0
LINE
  8
0
 62
     0
 10
15.291
 20
17.4981
 30
0.0
 11
14.6982
 21
17.045
 31
0.0
  0
LINE
  8
0
 62
     0
 10
14.6982
 20
17.045
 30
0.0
 11
14.1072
 21
16.5917
 31
0.0
  0
LINE
  8
0
 62
     0
 10
14.1072
 20
16.5917
 30
0.0
 11
13.5142
 21
16.139
 31
0.0
  0
LINE
  8
0
 62
     0
 10
13.5142
 20
16.139
 30
0.0
 11
13.7349
 21
15.8504
 31
0.0
  0
LINE
  8
0
 62
     0
 10
13.7349
 20
15.8504
 30
0.0
 11
13.9549
 21
15.5642
 31
0.0
  0
LINE
  8
0
 62
     0
 10
13.9549
 20
15.5642
 30
0.0
 11
14.1758
 21
15.2778
 31
0.0
  0
LINE
  8
0
 62
     0
 10
14.1758
 20
15.2778
 30
0.0
 11
14.3956
 21
14.9901
 31
0.0
  0
LINE
  8
0
 62
     0
 10
14.3956
 20
14.9901
 30
0.0
 11
13.9501
 21
15.154
 31
0.0
  0
LINE
  8
0
 62
     0
 10
13.9501
 20
15.154
 30
0.0
 11
13.4894
 21
15.275
 31
0.0
  0
LINE
  8
0
 62
     0
 10
13.4894
 20
15.275
 30
0.0
 11
13.0136
 21
15.3493
 31
0.0
  0
LINE
  8
0
 62
     0
 10
13.0136
 20
15.3493
 30
0.0
 11
12.5265
 21
15.375
 31
0.0
  0
LINE
  8
0
 62
     0
 10
12.5265
 20
15.375
 30
0.0
 11
11.7489
 21
15.3119
 31
0.0
  0
LINE
  8
0
 62
     0
 10
11.7489
 20
15.3119
 30
0.0
 11
11.0011
 21
15.1275
 31
0.0
  0
LINE
  8
0
 62
     0
 10
11.0011
 20
15.1275
 30
0.0
 11
10.296
 21
14.8229
 31
0.0
  0
LINE
  8
0
 62
     0
 10
10.296
 20
14.8229
 30
0.0
 11
9.64307
 21
14.4013
 31
0.0
  0
LINE
  8
0
 62
     0
 10
9.64307
 20
14.4013
 30
0.0
 11
7.69689
 21
12.9346
 31
0.0
  0
LINE
  8
0
 62
     0
 10
7.69689
 20
12.9346
 30
0.0
 11
5.75086
 21
11.4684
 31
0.0
  0
LINE
  8
0
 62
     0
 10
5.75086
 20
11.4684
 30
0.0
 11
3.80469
 21
10.0009
 31
0.0
  0
LINE
  8
0
 62
     0
 10
3.80469
 20
10.0009
 30
0.0
 11
1.85769
 21
8.53435
 31
0.0
  0
LINE
  8
0
 62
     0
 10
1.85769
 20
8.53435
 30
0.0
 11
1.16949
 21
7.89307
 31
0.0
  0
LINE
  8
0
 62
     0
 10
1.16949
 20
7.89307
 30
0.0
 11
0.629992
 21
7.14204
 31
0.0
  0
LINE
  8
0
 62
     0
 10
0.629992
 20
7.14204
 30
0.0
 11
0.247342
 21
6.29861
 31
0.0
  0
LINE
  8
0
 62
     0
 10
0.247342
 20
6.29861
 30
0.0
 11
0.0332031
 21
5.38439
 31
0.0
  0
LINE
  8
0
 62
     0
 10
0.0332031
 20
5.38439
 30
0.0
 11
0
 21
4.44515
 31
0.0
  0
LINE
  8
0
 62
     0
 10
0
 20
4.44515
 30
0.0
 11
0.149197
 21
3.53054
 31
0.0
  0
LINE
  8
0
 62
     0
 10
0.149197
 20
3.53054
 30
0.0
 11
0.474718
 21
2.6639
 31
0.0
  0
LINE
  8
0
 62
     0
 10
0.474718
 20
2.6639
 30
0.0
 11
0.971462
 21
1.86529
 31
0.0
  0
LINE
  8
0
 62
     0
 10
0.971462
 20
1.86529
 30
0.0
 11
1.73372
 21
1.07433
 31
0.0
  0
LINE
  8
0
 62
     0
 10
1.73372
 20
1.07433
 30
0.0
 11
2.63975
 21
0.488172
 31
0.0
  0
LINE
  8
0
 62
     0
 10
2.63975
 20
0.488172
 30
0.0
 11
3.65619
 21
0.124674
 31
0.0
  0
LINE
  8
0
 62
     0
 10
3.65619
 20
0.124674
 30
0.0
 11
4.75054
 21
-0
 31
0.0
  0
LINE
  8
0
 62
     0
 10
4.75054
 20
-0
 30
0.0
 11
4.75054
 21
-0
 31
0.0
  0
LINE
  8
0
 62
     0
 10
37.2063
 20
34.6036
 30
0.0
 11
38.6406
 21
34.3144
 31
0.0
  0
LINE
  8
0
 62
     0
 10
38.6406
 20
34.3144
 30
0.0
 11
39.8122
 21
33.5243
 31
0.0
  0
LINE
  8
0
 62
     0
 10
39.8122
 20
33.5243
 30
0.0
 11
40.601
 21
32.3529
 31
0.0
  0
LINE
  8
0
 62
     0
 10
40.601
 20
32.3529
 30
0.0
 11
40.8917
 21
30.9189
 31
0.0
  0
LINE
  8
0
 62
     0
 10
40.8917
 20
30.9189
 30
0.0
 11
40.601
 21
29.4839
 31
0.0
  0
LINE
  8
0
 62
     0
 10
40.601
 20
29.4839
 30
0.0
 11
39.8122
 21
28.3122
 31
0.0
  0
LINE
  8
0
 62
     0
 10
39.8122
 20
28.3122
 30
0.0
 11
38.6406
 21
27.5222
 31
0.0
  0
LINE
  8
0
 62
     0
 10
38.6406
 20
27.5222
 30
0.0
 11
37.2063
 21
27.2329
 31
0.0
  0
LINE
  8
0
 62
     0
 10
37.2063
 20
27.2329
 30
0.0
 11
35.7715
 21
27.5222
 31
0.0
  0
LINE
  8
0
 62
     0
 10
35.7715
 20
27.5222
 30
0.0
 11
34.6001
 21
28.3129
 31
0.0
  0
LINE
  8
0
 62
     0
 10
34.6001
 20
28.3129
 30
0.0
 11
33.81
 21
29.4849
 31
0.0
  0
LINE
  8
0
 62
     0
 10
33.81
 20
29.4849
 30
0.0
 11
33.5208
 21
30.9199
 31
0.0
  0
LINE
  8
0
 62
     0
 10
33.5208
 20
30.9199
 30
0.0
 11
33.81
 21
32.354
 31
0.0
  0
LINE
  8
0
 62
     0
 10
33.81
 20
32.354
 30
0.0
 11
34.6001
 21
33.5253
 31
0.0
  0
LINE
  8
0
 62
     0
 10
34.6001
 20
33.5253
 30
0.0
 11
35.7715
 21
34.3153
 31
0.0
  0
LINE
  8
0
 62
     0
 10
35.7715
 20
34.3153
 30
0.0
 11
37.2063
 21
34.6036
 31
0.0
  0
LINE
  8
0
 62
     0
 10
37.2063
 20
34.6036
 30
0.0
 11
37.2063
 21
34.6036
 31
0.0
  0
LINE
  8
0
 62
     0
 10
32.0044
 20
13.444
 30
0.0
 11
36.8431
 21
14.4206
 31
0.0
  0
LINE
  8
0
 62
     0
 10
36.8431
 20
14.4206
 30
0.0
 11
40.7942
 21
17.085
 31
0.0
  0
LINE
  8
0
 62
     0
 10
40.7942
 20
17.085
 30
0.0
 11
43.4586
 21
21.036
 31
0.0
  0
LINE
  8
0
 62
     0
 10
43.4586
 20
21.036
 30
0.0
 11
44.4354
 21
25.876
 31
0.0
  0
LINE
  8
0
 62
     0
 10
44.4354
 20
25.876
 30
0.0
 11
43.4586
 21
30.7154
 31
0.0
  0
LINE
  8
0
 62
     0
 10
43.4586
 20
30.7154
 30
0.0
 11
40.7942
 21
34.6665
 31
0.0
  0
LINE
  8
0
 62
     0
 10
40.7942
 20
34.6665
 30
0.0
 11
36.8431
 21
37.3301
 31
0.0
  0
LINE
  8
0
 62
     0
 10
36.8431
 20
37.3301
 30
0.0
 11
32.0044
 21
38.3065
 31
0.0
  0
LINE
  8
0
 62
     0
 10
32.0044
 20
38.3065
 30
0.0
 11
27.1657
 21
37.3301
 31
0.0
  0
LINE
  8
0
 62
     0
 10
27.1657
 20
37.3301
 30
0.0
 11
23.2143
 21
34.6665
 31
0.0
  0
LINE
  8
0
 62
     0
 10
23.2143
 20
34.6665
 30
0.0
 11
20.5507
 21
30.7154
 31
0.0
  0
LINE
  8
0
 62
     0
 10
20.5507
 20
30.7154
 30
0.0
 11
19.5743
 21
25.876
 31
0.0
  0
LINE
  8
0
 62
     0
 10
19.5743
 20
25.876
 30
0.0
 11
20.5518
 21
21.036
 31
0.0
  0
LINE
  8
0
 62
     0
 10
20.5518
 20
21.036
 30
0.0
 11
23.2143
 21
17.085
 31
0.0
  0
LINE
  8
0
 62
     0
 10
23.2143
 20
17.085
 30
0.0
 11
27.1657
 21
14.4206
 31
0.0
  0
LINE
  8
0
 62
     0
 10
27.1657
 20
14.4206
 30
0.0
 11
32.0044
 21
13.444
 31
0.0
  0
LINE
  8
0
 62
     0
 10
32.0044
 20
13.444
 30
0.0
 11
32.0044
 21
13.444
 31
0.0
  0
ENDSEC
  0
EOF
