  0
SECTION
  2
HEADER
  9
$ACADVER
  1
AC1009
  9
$EXTMIN
 10
0.0
 20
0.0
 30
0.0
  9
$EXTMAX
 10
1000.0
 20
1000.0
 30
0.0
  9
$FILLMODE
 70
 0
  9
$SPLFRAME
 70
 1
  0
ENDSEC
  0
SECTION
  2
TABLES
  0
TABLE
  2
LAYER
 70
1
  0
LAYER
  2
0
 70
     0
 62
     7
  6
CONTINUOUS
  0
ENDTAB
  0
ENDSEC
  0
SECTION
  2
ENTITIES
  0
LINE
  8
0
 62
     0
 10
14.3435
 20
29.1347
 30
0.0
 11
16
 21
28.69
 31
0.0
  0
LINE
  8
0
 62
     0
 10
16
 20
28.69
 30
0.0
 11
17.6571
 21
28.2458
 31
0.0
  0
LINE
  8
0
 62
     0
 10
17.6571
 20
28.2458
 30
0.0
 11
19.3128
 21
27.8011
 31
0.0
  0
LINE
  8
0
 62
     0
 10
19.3128
 20
27.8011
 30
0.0
 11
20.9694
 21
27.3561
 31
0.0
  0
LINE
  8
0
 62
     0
 10
20.9694
 20
27.3561
 30
0.0
 11
21.1231
 21
27.2643
 31
0.0
  0
LINE
  8
0
 62
     0
 10
21.1231
 20
27.2643
 30
0.0
 11
21.2757
 21
27.1715
 31
0.0
  0
LINE
  8
0
 62
     0
 10
21.2757
 20
27.1715
 30
0.0
 11
21.43
 21
27.0786
 31
0.0
  0
LINE
  8
0
 62
     0
 10
21.43
 20
27.0786
 30
0.0
 11
21.5825
 21
26.9867
 31
0.0
  0
LINE
  8
0
 62
     0
 10
21.5825
 20
26.9867
 30
0.0
 11
21.3242
 21
26.5914
 31
0.0
  0
LINE
  8
0
 62
     0
 10
21.3242
 20
26.5914
 30
0.0
 11
21.0665
 21
26.1946
 31
0.0
  0
LINE
  8
0
 62
     0
 10
21.0665
 20
26.1946
 30
0.0
 11
20.8067
 21
25.7982
 31
0.0
  0
LINE
  8
0
 62
     0
 10
20.8067
 20
25.7982
 30
0.0
 11
20.549
 21
25.4026
 31
0.0
  0
LINE
  8
0
 62
     0
 10
20.549
 20
25.4026
 30
0.0
 11
20.6161
 21
25.304
 31
0.0
  0
LINE
  8
0
 62
     0
 10
20.6161
 20
25.304
 30
0.0
 11
20.6833
 21
25.2061
 31
0.0
  0
LINE
  8
0
 62
     0
 10
20.6833
 20
25.2061
 30
0.0
 11
20.7504
 21
25.1087
 31
0.0
  0
LINE
  8
0
 62
     0
 10
20.7504
 20
25.1087
 30
0.0
 11
20.8193
 21
25.01
 31
0.0
  0
LINE
  8
0
 62
     0
 10
20.8193
 20
25.01
 30
0.0
 11
20.1181
 21
24.4036
 31
0.0
  0
LINE
  8
0
 62
     0
 10
20.1181
 20
24.4036
 30
0.0
 11
19.4182
 21
23.7961
 31
0.0
  0
LINE
  8
0
 62
     0
 10
19.4182
 20
23.7961
 30
0.0
 11
18.7172
 21
23.1892
 31
0.0
  0
LINE
  8
0
 62
     0
 10
18.7172
 20
23.1892
 30
0.0
 11
18.0161
 21
22.5818
 31
0.0
  0
LINE
  8
0
 62
     0
 10
18.0161
 20
22.5818
 30
0.0
 11
17.9686
 21
22.5785
 31
0.0
  0
LINE
  8
0
 62
     0
 10
17.9686
 20
22.5785
 30
0.0
 11
17.9249
 21
22.5761
 31
0.0
  0
LINE
  8
0
 62
     0
 10
17.9249
 20
22.5761
 30
0.0
 11
17.8767
 21
22.574
 31
0.0
  0
LINE
  8
0
 62
     0
 10
17.8767
 20
22.574
 30
0.0
 11
17.829
 21
22.5731
 31
0.0
  0
LINE
  8
0
 62
     0
 10
17.829
 20
22.5731
 30
0.0
 11
16.9647
 21
23.1193
 31
0.0
  0
LINE
  8
0
 62
     0
 10
16.9647
 20
23.1193
 30
0.0
 11
16.0997
 21
23.666
 31
0.0
  0
LINE
  8
0
 62
     0
 10
16.0997
 20
23.666
 30
0.0
 11
15.2354
 21
24.2108
 31
0.0
  0
LINE
  8
0
 62
     0
 10
15.2354
 20
24.2108
 30
0.0
 11
14.3718
 21
24.7574
 31
0.0
  0
LINE
  8
0
 62
     0
 10
14.3718
 20
24.7574
 30
0.0
 11
15.2121
 21
24.8889
 31
0.0
  0
LINE
  8
0
 62
     0
 10
15.2121
 20
24.8889
 30
0.0
 11
16.0522
 21
25.0214
 31
0.0
  0
LINE
  8
0
 62
     0
 10
16.0522
 20
25.0214
 30
0.0
 11
16.894
 21
25.1531
 31
0.0
  0
LINE
  8
0
 62
     0
 10
16.894
 20
25.1531
 30
0.0
 11
17.7344
 21
25.2838
 31
0.0
  0
LINE
  8
0
 62
     0
 10
17.7344
 20
25.2838
 30
0.0
 11
16.7574
 21
25.4635
 31
0.0
  0
LINE
  8
0
 62
     0
 10
16.7574
 20
25.4635
 30
0.0
 11
15.7818
 21
25.6443
 31
0.0
  0
LINE
  8
0
 62
     0
 10
15.7818
 20
25.6443
 30
0.0
 11
14.8047
 21
25.8243
 31
0.0
  0
LINE
  8
0
 62
     0
 10
14.8047
 20
25.8243
 30
0.0
 11
13.828
 21
26.0042
 31
0.0
  0
LINE
  8
0
 62
     0
 10
13.828
 20
26.0042
 30
0.0
 11
13.8134
 21
26.1251
 31
0.0
  0
LINE
  8
0
 62
     0
 10
13.8134
 20
26.1251
 30
0.0
 11
13.8021
 21
26.2471
 31
0.0
  0
LINE
  8
0
 62
     0
 10
13.8021
 20
26.2471
 30
0.0
 11
13.7943
 21
26.3697
 31
0.0
  0
LINE
  8
0
 62
     0
 10
13.7943
 20
26.3697
 30
0.0
 11
13.7896
 21
26.4935
 31
0.0
  0
LINE
  8
0
 62
     0
 10
13.7896
 20
26.4935
 30
0.0
 11
13.9286
 21
27.1543
 31
0.0
  0
LINE
  8
0
 62
     0
 10
13.9286
 20
27.1543
 30
0.0
 11
14.0678
 21
27.8147
 31
0.0
  0
LINE
  8
0
 62
     0
 10
14.0678
 20
27.8147
 30
0.0
 11
14.2079
 21
28.4751
 31
0.0
  0
LINE
  8
0
 62
     0
 10
14.2079
 20
28.4751
 30
0.0
 11
14.3435
 21
29.1347
 31
0.0
  0
LINE
  8
0
 62
     0
 10
14.3435
 20
29.1347
 30
0.0
 11
14.3435
 21
29.1347
 31
0.0
  0
LINE
  8
0
 62
     0
 10
0
 20
17.9044
 30
0.0
 11
1.40717
 21
10.9358
 31
0.0
  0
LINE
  8
0
 62
     0
 10
1.40717
 20
10.9358
 30
0.0
 11
5.24376
 21
5.24408
 31
0.0
  0
LINE
  8
0
 62
     0
 10
5.24376
 20
5.24408
 30
0.0
 11
10.9353
 21
1.40728
 31
0.0
  0
LINE
  8
0
 62
     0
 10
10.9353
 20
1.40728
 30
0.0
 11
17.9057
 21
-0
 31
0.0
  0
LINE
  8
0
 62
     0
 10
17.9057
 20
-0
 30
0.0
 11
24.874
 21
1.40728
 31
0.0
  0
LINE
  8
0
 62
     0
 10
24.874
 20
1.40728
 30
0.0
 11
30.5642
 21
5.24408
 31
0.0
  0
LINE
  8
0
 62
     0
 10
30.5642
 20
5.24408
 30
0.0
 11
34.4019
 21
10.9358
 31
0.0
  0
LINE
  8
0
 62
     0
 10
34.4019
 20
10.9358
 30
0.0
 11
35.809
 21
17.9044
 31
0.0
  0
LINE
  8
0
 62
     0
 10
35.809
 20
17.9044
 30
0.0
 11
34.7542
 21
23.9714
 31
0.0
  0
LINE
  8
0
 62
     0
 10
34.7542
 20
23.9714
 30
0.0
 11
31.8381
 21
29.1482
 31
0.0
  0
LINE
  8
0
 62
     0
 10
31.8381
 20
29.1482
 30
0.0
 11
27.4243
 21
33.0651
 31
0.0
  0
LINE
  8
0
 62
     0
 10
27.4243
 20
33.0651
 30
0.0
 11
21.8854
 21
35.3583
 31
0.0
  0
LINE
  8
0
 62
     0
 10
21.8854
 20
35.3583
 30
0.0
 11
21.8738
 21
35.4503
 31
0.0
  0
LINE
  8
0
 62
     0
 10
21.8738
 20
35.4503
 30
0.0
 11
21.864
 21
35.5429
 31
0.0
  0
LINE
  8
0
 62
     0
 10
21.864
 20
35.5429
 30
0.0
 11
21.8535
 21
35.6349
 31
0.0
  0
LINE
  8
0
 62
     0
 10
21.8535
 20
35.6349
 30
0.0
 11
21.8429
 21
35.7268
 31
0.0
  0
LINE
  8
0
 62
     0
 10
21.8429
 20
35.7268
 30
0.0
 11
21.829
 21
35.6396
 31
0.0
  0
LINE
  8
0
 62
     0
 10
21.829
 20
35.6396
 30
0.0
 11
21.8165
 21
35.5526
 31
0.0
  0
LINE
  8
0
 62
     0
 10
21.8165
 20
35.5526
 30
0.0
 11
21.8029
 21
35.4656
 31
0.0
  0
LINE
  8
0
 62
     0
 10
21.8029
 20
35.4656
 30
0.0
 11
21.7894
 21
35.3785
 31
0.0
  0
LINE
  8
0
 62
     0
 10
21.7894
 20
35.3785
 30
0.0
 11
21.7693
 21
35.3835
 31
0.0
  0
LINE
  8
0
 62
     0
 10
21.7693
 20
35.3835
 30
0.0
 11
21.7476
 21
35.3882
 31
0.0
  0
LINE
  8
0
 62
     0
 10
21.7476
 20
35.3882
 30
0.0
 11
21.7276
 21
35.3931
 31
0.0
  0
LINE
  8
0
 62
     0
 10
21.7276
 20
35.3931
 30
0.0
 11
21.706
 21
35.3981
 31
0.0
  0
LINE
  8
0
 62
     0
 10
21.706
 20
35.3981
 30
0.0
 11
21.706
 21
35.2471
 31
0.0
  0
LINE
  8
0
 62
     0
 10
21.706
 20
35.2471
 30
0.0
 11
21.706
 21
35.0971
 31
0.0
  0
LINE
  8
0
 62
     0
 10
21.706
 20
35.0971
 30
0.0
 11
21.706
 21
34.9464
 31
0.0
  0
LINE
  8
0
 62
     0
 10
21.706
 20
34.9464
 30
0.0
 11
21.706
 21
34.7954
 31
0.0
  0
LINE
  8
0
 62
     0
 10
21.706
 20
34.7954
 30
0.0
 11
21.5639
 21
33.7964
 31
0.0
  0
LINE
  8
0
 62
     0
 10
21.5639
 20
33.7964
 30
0.0
 11
21.4199
 21
32.7974
 31
0.0
  0
LINE
  8
0
 62
     0
 10
21.4199
 20
32.7974
 30
0.0
 11
21.2778
 21
31.7983
 31
0.0
  0
LINE
  8
0
 62
     0
 10
21.2778
 20
31.7983
 30
0.0
 11
21.135
 21
30.7992
 31
0.0
  0
LINE
  8
0
 62
     0
 10
21.135
 20
30.7992
 30
0.0
 11
21.2778
 21
30.6792
 31
0.0
  0
LINE
  8
0
 62
     0
 10
21.2778
 20
30.6792
 30
0.0
 11
21.4199
 21
30.5603
 31
0.0
  0
LINE
  8
0
 62
     0
 10
21.4199
 20
30.5603
 30
0.0
 11
21.5639
 21
30.4413
 31
0.0
  0
LINE
  8
0
 62
     0
 10
21.5639
 20
30.4413
 30
0.0
 11
21.706
 21
30.3214
 31
0.0
  0
LINE
  8
0
 62
     0
 10
21.706
 20
30.3214
 30
0.0
 11
21.706
 21
30.2837
 31
0.0
  0
LINE
  8
0
 62
     0
 10
21.706
 20
30.2837
 30
0.0
 11
21.706
 21
30.2462
 31
0.0
  0
LINE
  8
0
 62
     0
 10
21.706
 20
30.2462
 30
0.0
 11
21.706
 21
30.2083
 31
0.0
  0
LINE
  8
0
 62
     0
 10
21.706
 20
30.2083
 30
0.0
 11
21.706
 21
30.1706
 31
0.0
  0
LINE
  8
0
 62
     0
 10
21.706
 20
30.1706
 30
0.0
 11
21.5079
 21
29.4858
 31
0.0
  0
LINE
  8
0
 62
     0
 10
21.5079
 20
29.4858
 30
0.0
 11
21.3096
 21
28.8014
 31
0.0
  0
LINE
  8
0
 62
     0
 10
21.3096
 20
28.8014
 30
0.0
 11
21.1115
 21
28.1164
 31
0.0
  0
LINE
  8
0
 62
     0
 10
21.1115
 20
28.1164
 30
0.0
 11
20.9132
 21
27.4308
 31
0.0
  0
LINE
  8
0
 62
     0
 10
20.9132
 20
27.4308
 30
0.0
 11
19.1317
 21
28.2411
 31
0.0
  0
LINE
  8
0
 62
     0
 10
19.1317
 20
28.2411
 30
0.0
 11
17.3506
 21
29.0526
 31
0.0
  0
LINE
  8
0
 62
     0
 10
17.3506
 20
29.0526
 30
0.0
 11
15.569
 21
29.8632
 31
0.0
  0
LINE
  8
0
 62
     0
 10
15.569
 20
29.8632
 30
0.0
 11
13.7875
 21
30.6736
 31
0.0
  0
LINE
  8
0
 62
     0
 10
13.7875
 20
30.6736
 30
0.0
 11
13.7875
 21
30.8601
 31
0.0
  0
LINE
  8
0
 62
     0
 10
13.7875
 20
30.8601
 30
0.0
 11
13.7875
 21
31.0488
 31
0.0
  0
LINE
  8
0
 62
     0
 10
13.7875
 20
31.0488
 30
0.0
 11
13.7875
 21
31.2363
 31
0.0
  0
LINE
  8
0
 62
     0
 10
13.7875
 20
31.2363
 30
0.0
 11
13.7875
 21
31.4239
 31
0.0
  0
LINE
  8
0
 62
     0
 10
13.7875
 20
31.4239
 30
0.0
 11
13.9268
 21
31.9328
 31
0.0
  0
LINE
  8
0
 62
     0
 10
13.9268
 20
31.9328
 30
0.0
 11
14.066
 21
32.4414
 31
0.0
  0
LINE
  8
0
 62
     0
 10
14.066
 20
32.4414
 30
0.0
 11
14.2064
 21
32.9521
 31
0.0
  0
LINE
  8
0
 62
     0
 10
14.2064
 20
32.9521
 30
0.0
 11
14.3446
 21
33.4608
 31
0.0
  0
LINE
  8
0
 62
     0
 10
14.3446
 20
33.4608
 30
0.0
 11
15.9974
 21
32.835
 31
0.0
  0
LINE
  8
0
 62
     0
 10
15.9974
 20
32.835
 30
0.0
 11
17.6513
 21
32.2093
 31
0.0
  0
LINE
  8
0
 62
     0
 10
17.6513
 20
32.2093
 30
0.0
 11
19.3046
 21
31.5836
 31
0.0
  0
LINE
  8
0
 62
     0
 10
19.3046
 20
31.5836
 30
0.0
 11
20.9579
 21
30.9568
 31
0.0
  0
LINE
  8
0
 62
     0
 10
20.9579
 20
30.9568
 30
0.0
 11
19.0669
 21
32.2963
 31
0.0
  0
LINE
  8
0
 62
     0
 10
19.0669
 20
32.2963
 30
0.0
 11
17.1754
 21
33.6358
 31
0.0
  0
LINE
  8
0
 62
     0
 10
17.1754
 20
33.6358
 30
0.0
 11
15.2844
 21
34.9763
 31
0.0
  0
LINE
  8
0
 62
     0
 10
15.2844
 20
34.9763
 30
0.0
 11
13.393
 21
36.3156
 31
0.0
  0
LINE
  8
0
 62
     0
 10
13.393
 20
36.3156
 30
0.0
 11
13.4169
 21
36.0497
 31
0.0
  0
LINE
  8
0
 62
     0
 10
13.4169
 20
36.0497
 30
0.0
 11
13.4413
 21
35.7831
 31
0.0
  0
LINE
  8
0
 62
     0
 10
13.4413
 20
35.7831
 30
0.0
 11
13.4654
 21
35.5171
 31
0.0
  0
LINE
  8
0
 62
     0
 10
13.4654
 20
35.5171
 30
0.0
 11
13.4896
 21
35.25
 31
0.0
  0
LINE
  8
0
 62
     0
 10
13.4896
 20
35.25
 30
0.0
 11
8.11242
 21
32.8864
 31
0.0
  0
LINE
  8
0
 62
     0
 10
8.11242
 20
32.8864
 30
0.0
 11
3.8386
 21
28.9761
 31
0.0
  0
LINE
  8
0
 62
     0
 10
3.8386
 20
28.9761
 30
0.0
 11
1.01828
 21
23.8676
 31
0.0
  0
LINE
  8
0
 62
     0
 10
1.01828
 20
23.8676
 30
0.0
 11
0
 21
17.9044
 31
0.0
  0
LINE
  8
0
 62
     0
 10
0
 20
17.9044
 30
0.0
 11
0
 21
17.9044
 31
0.0
  0
LINE
  8
0
 62
     0
 10
24.305
 20
37.0181
 30
0.0
 11
25.1269
 21
36.9889
 31
0.0
  0
LINE
  8
0
 62
     0
 10
25.1269
 20
36.9889
 30
0.0
 11
25.9486
 21
36.9589
 31
0.0
  0
LINE
  8
0
 62
     0
 10
25.9486
 20
36.9589
 30
0.0
 11
26.7692
 21
36.9299
 31
0.0
  0
LINE
  8
0
 62
     0
 10
26.7692
 20
36.9299
 30
0.0
 11
27.5911
 21
36.8999
 31
0.0
  0
LINE
  8
0
 62
     0
 10
27.5911
 20
36.8999
 30
0.0
 11
27.9143
 21
37.5431
 31
0.0
  0
LINE
  8
0
 62
     0
 10
27.9143
 20
37.5431
 30
0.0
 11
28.2368
 21
38.1862
 31
0.0
  0
LINE
  8
0
 62
     0
 10
28.2368
 20
38.1862
 30
0.0
 11
28.5565
 21
38.8283
 31
0.0
  0
LINE
  8
0
 62
     0
 10
28.5565
 20
38.8283
 30
0.0
 11
28.8786
 21
39.4717
 31
0.0
  0
LINE
  8
0
 62
     0
 10
28.8786
 20
39.4717
 30
0.0
 11
27.7346
 21
38.8574
 31
0.0
  0
LINE
  8
0
 62
     0
 10
27.7346
 20
38.8574
 30
0.0
 11
26.5922
 21
38.2442
 31
0.0
  0
LINE
  8
0
 62
     0
 10
26.5922
 20
38.2442
 30
0.0
 11
25.4485
 21
37.6311
 31
0.0
  0
LINE
  8
0
 62
     0
 10
25.4485
 20
37.6311
 30
0.0
 11
24.305
 21
37.0181
 31
0.0
  0
LINE
  8
0
 62
     0
 10
6.58415
 20
34.7879
 30
0.0
 11
7.58242
 21
35.0528
 31
0.0
  0
LINE
  8
0
 62
     0
 10
7.58242
 20
35.0528
 30
0.0
 11
8.57954
 21
35.3168
 31
0.0
  0
LINE
  8
0
 62
     0
 10
8.57954
 20
35.3168
 30
0.0
 11
9.57661
 21
35.5799
 31
0.0
  0
LINE
  8
0
 62
     0
 10
9.57661
 20
35.5799
 30
0.0
 11
10.5755
 21
35.8447
 31
0.0
  0
LINE
  8
0
 62
     0
 10
10.5755
 20
35.8447
 30
0.0
 11
9.31446
 21
35.9946
 31
0.0
  0
LINE
  8
0
 62
     0
 10
9.31446
 20
35.9946
 30
0.0
 11
8.05339
 21
36.1464
 31
0.0
  0
LINE
  8
0
 62
     0
 10
8.05339
 20
36.1464
 30
0.0
 11
6.79308
 21
36.2975
 31
0.0
  0
LINE
  8
0
 62
     0
 10
6.79308
 20
36.2975
 30
0.0
 11
5.53196
 21
36.4474
 31
0.0
  0
LINE
  8
0
 62
     0
 10
5.53196
 20
36.4474
 30
0.0
 11
5.79617
 21
36.0325
 31
0.0
  0
LINE
  8
0
 62
     0
 10
5.79617
 20
36.0325
 30
0.0
 11
6.05826
 21
35.6174
 31
0.0
  0
LINE
  8
0
 62
     0
 10
6.05826
 20
35.6174
 30
0.0
 11
6.32124
 21
35.2015
 31
0.0
  0
LINE
  8
0
 62
     0
 10
6.32124
 20
35.2015
 30
0.0
 11
6.58415
 21
34.7879
 31
0.0
  0
LINE
  8
0
 62
     0
 10
6.54075
 20
39.8069
 30
0.0
 11
7.46158
 21
39.6088
 31
0.0
  0
LINE
  8
0
 62
     0
 10
7.46158
 20
39.6088
 30
0.0
 11
8.38129
 21
39.4096
 31
0.0
  0
LINE
  8
0
 62
     0
 10
8.38129
 20
39.4096
 30
0.0
 11
9.30192
 21
39.2103
 31
0.0
  0
LINE
  8
0
 62
     0
 10
9.30192
 20
39.2103
 30
0.0
 11
10.2217
 21
39.0131
 31
0.0
  0
LINE
  8
0
 62
     0
 10
10.2217
 20
39.0131
 30
0.0
 11
9.30192
 21
39.8836
 31
0.0
  0
LINE
  8
0
 62
     0
 10
9.30192
 20
39.8836
 30
0.0
 11
8.38129
 21
40.7539
 31
0.0
  0
LINE
  8
0
 62
     0
 10
8.38129
 20
40.7539
 30
0.0
 11
7.46158
 21
41.6244
 31
0.0
  0
LINE
  8
0
 62
     0
 10
7.46158
 20
41.6244
 30
0.0
 11
6.54075
 21
42.4947
 31
0.0
  0
LINE
  8
0
 62
     0
 10
6.54075
 20
42.4947
 30
0.0
 11
6.54075
 21
41.8226
 31
0.0
  0
LINE
  8
0
 62
     0
 10
6.54075
 20
41.8226
 30
0.0
 11
6.54075
 21
41.1504
 31
0.0
  0
LINE
  8
0
 62
     0
 10
6.54075
 20
41.1504
 30
0.0
 11
6.54075
 21
40.4792
 31
0.0
  0
LINE
  8
0
 62
     0
 10
6.54075
 20
40.4792
 30
0.0
 11
6.54075
 21
39.8069
 31
0.0
  0
LINE
  8
0
 62
     0
 10
20.4328
 20
42.0653
 30
0.0
 11
20.6097
 21
41.6822
 31
0.0
  0
LINE
  8
0
 62
     0
 10
20.6097
 20
41.6822
 30
0.0
 11
20.7847
 21
41.3014
 31
0.0
  0
LINE
  8
0
 62
     0
 10
20.7847
 20
41.3014
 30
0.0
 11
20.9607
 21
40.9204
 31
0.0
  0
LINE
  8
0
 62
     0
 10
20.9607
 20
40.9204
 30
0.0
 11
21.1367
 21
40.5392
 31
0.0
  0
LINE
  8
0
 62
     0
 10
21.1367
 20
40.5392
 30
0.0
 11
21.1367
 21
39.4242
 31
0.0
  0
LINE
  8
0
 62
     0
 10
21.1367
 20
39.4242
 30
0.0
 11
21.1367
 21
38.3089
 31
0.0
  0
LINE
  8
0
 62
     0
 10
21.1367
 20
38.3089
 30
0.0
 11
21.1367
 21
37.1949
 31
0.0
  0
LINE
  8
0
 62
     0
 10
21.1367
 20
37.1949
 30
0.0
 11
21.1367
 21
36.0797
 31
0.0
  0
LINE
  8
0
 62
     0
 10
21.1367
 20
36.0797
 30
0.0
 11
21.3418
 21
37.4
 31
0.0
  0
LINE
  8
0
 62
     0
 10
21.3418
 20
37.4
 30
0.0
 11
21.5476
 21
38.7199
 31
0.0
  0
LINE
  8
0
 62
     0
 10
21.5476
 20
38.7199
 30
0.0
 11
21.7538
 21
40.0382
 31
0.0
  0
LINE
  8
0
 62
     0
 10
21.7538
 20
40.0382
 30
0.0
 11
21.9586
 21
41.3585
 31
0.0
  0
LINE
  8
0
 62
     0
 10
21.9586
 20
41.3585
 30
0.0
 11
21.7246
 21
41.5062
 31
0.0
  0
LINE
  8
0
 62
     0
 10
21.7246
 20
41.5062
 30
0.0
 11
21.4886
 21
41.6533
 31
0.0
  0
LINE
  8
0
 62
     0
 10
21.4886
 20
41.6533
 30
0.0
 11
21.254
 21
41.8003
 31
0.0
  0
LINE
  8
0
 62
     0
 10
21.254
 20
41.8003
 30
0.0
 11
21.0193
 21
41.9472
 31
0.0
  0
LINE
  8
0
 62
     0
 10
21.0193
 20
41.9472
 30
0.0
 11
21.254
 21
43.2957
 31
0.0
  0
LINE
  8
0
 62
     0
 10
21.254
 20
43.2957
 30
0.0
 11
21.4886
 21
44.6457
 31
0.0
  0
LINE
  8
0
 62
     0
 10
21.4886
 20
44.6457
 30
0.0
 11
21.7246
 21
45.9947
 31
0.0
  0
LINE
  8
0
 62
     0
 10
21.7246
 20
45.9947
 30
0.0
 11
21.9586
 21
47.345
 31
0.0
  0
LINE
  8
0
 62
     0
 10
21.9586
 20
47.345
 30
0.0
 11
21.5778
 21
46.0247
 31
0.0
  0
LINE
  8
0
 62
     0
 10
21.5778
 20
46.0247
 30
0.0
 11
21.196
 21
44.7046
 31
0.0
  0
LINE
  8
0
 62
     0
 10
21.196
 20
44.7046
 30
0.0
 11
20.8149
 21
43.3844
 31
0.0
  0
LINE
  8
0
 62
     0
 10
20.8149
 20
43.3844
 30
0.0
 11
20.4328
 21
42.0653
 31
0.0
  0
LINE
  8
0
 62
     0
 10
13.7439
 20
41.9472
 30
0.0
 11
13.5681
 21
41.6822
 31
0.0
  0
LINE
  8
0
 62
     0
 10
13.5681
 20
41.6822
 30
0.0
 11
13.3919
 21
41.4183
 31
0.0
  0
LINE
  8
0
 62
     0
 10
13.3919
 20
41.4183
 30
0.0
 11
13.2167
 21
41.1543
 31
0.0
  0
LINE
  8
0
 62
     0
 10
13.2167
 20
41.1543
 30
0.0
 11
13.0397
 21
40.8904
 31
0.0
  0
LINE
  8
0
 62
     0
 10
13.0397
 20
40.8904
 30
0.0
 11
13.2167
 21
40.0103
 31
0.0
  0
LINE
  8
0
 62
     0
 10
13.2167
 20
40.0103
 30
0.0
 11
13.3919
 21
39.13
 31
0.0
  0
LINE
  8
0
 62
     0
 10
13.3919
 20
39.13
 30
0.0
 11
13.5681
 21
38.2511
 31
0.0
  0
LINE
  8
0
 62
     0
 10
13.5681
 20
38.2511
 30
0.0
 11
13.7439
 21
37.371
 31
0.0
  0
LINE
  8
0
 62
     0
 10
13.7439
 20
37.371
 30
0.0
 11
13.7729
 21
38.0449
 31
0.0
  0
LINE
  8
0
 62
     0
 10
13.7729
 20
38.0449
 30
0.0
 11
13.8028
 21
38.7199
 31
0.0
  0
LINE
  8
0
 62
     0
 10
13.8028
 20
38.7199
 30
0.0
 11
13.8331
 21
39.395
 31
0.0
  0
LINE
  8
0
 62
     0
 10
13.8331
 20
39.395
 30
0.0
 11
13.8618
 21
40.0693
 31
0.0
  0
LINE
  8
0
 62
     0
 10
13.8618
 20
40.0693
 30
0.0
 11
13.8821
 21
40.0981
 31
0.0
  0
LINE
  8
0
 62
     0
 10
13.8821
 20
40.0981
 30
0.0
 11
13.9006
 21
40.1281
 31
0.0
  0
LINE
  8
0
 62
     0
 10
13.9006
 20
40.1281
 30
0.0
 11
13.9211
 21
40.1563
 31
0.0
  0
LINE
  8
0
 62
     0
 10
13.9211
 20
40.1563
 30
0.0
 11
13.9403
 21
40.1853
 31
0.0
  0
LINE
  8
0
 62
     0
 10
13.9403
 20
40.1853
 30
0.0
 11
13.9211
 21
40.1272
 31
0.0
  0
LINE
  8
0
 62
     0
 10
13.9211
 20
40.1272
 30
0.0
 11
13.9006
 21
40.0693
 31
0.0
  0
LINE
  8
0
 62
     0
 10
13.9006
 20
40.0693
 30
0.0
 11
13.8821
 21
40.0103
 31
0.0
  0
LINE
  8
0
 62
     0
 10
13.8821
 20
40.0103
 30
0.0
 11
13.8618
 21
39.9513
 31
0.0
  0
LINE
  8
0
 62
     0
 10
13.8618
 20
39.9513
 30
0.0
 11
15.535
 21
39.0722
 31
0.0
  0
LINE
  8
0
 62
     0
 10
15.535
 20
39.0722
 30
0.0
 11
17.2065
 21
38.1919
 31
0.0
  0
LINE
  8
0
 62
     0
 10
17.2065
 20
38.1919
 30
0.0
 11
18.8788
 21
37.3108
 31
0.0
  0
LINE
  8
0
 62
     0
 10
18.8788
 20
37.3108
 30
0.0
 11
20.5511
 21
36.4319
 31
0.0
  0
LINE
  8
0
 62
     0
 10
20.5511
 20
36.4319
 30
0.0
 11
19.0543
 21
37.84
 31
0.0
  0
LINE
  8
0
 62
     0
 10
19.0543
 20
37.84
 30
0.0
 11
17.5583
 21
39.2482
 31
0.0
  0
LINE
  8
0
 62
     0
 10
17.5583
 20
39.2482
 30
0.0
 11
16.0614
 21
40.6563
 31
0.0
  0
LINE
  8
0
 62
     0
 10
16.0614
 20
40.6563
 30
0.0
 11
14.5649
 21
42.0653
 31
0.0
  0
LINE
  8
0
 62
     0
 10
14.5649
 20
42.0653
 30
0.0
 11
14.5476
 21
42.0121
 31
0.0
  0
LINE
  8
0
 62
     0
 10
14.5476
 20
42.0121
 30
0.0
 11
14.5303
 21
41.9599
 31
0.0
  0
LINE
  8
0
 62
     0
 10
14.5303
 20
41.9599
 30
0.0
 11
14.5126
 21
41.9078
 31
0.0
  0
LINE
  8
0
 62
     0
 10
14.5126
 20
41.9078
 30
0.0
 11
14.4965
 21
41.8564
 31
0.0
  0
LINE
  8
0
 62
     0
 10
14.4965
 20
41.8564
 30
0.0
 11
14.3957
 21
42.9057
 31
0.0
  0
LINE
  8
0
 62
     0
 10
14.3957
 20
42.9057
 30
0.0
 11
14.2962
 21
43.9542
 31
0.0
  0
LINE
  8
0
 62
     0
 10
14.2962
 20
43.9542
 30
0.0
 11
14.1946
 21
45.0046
 31
0.0
  0
LINE
  8
0
 62
     0
 10
14.1946
 20
45.0046
 30
0.0
 11
14.0949
 21
46.0539
 31
0.0
  0
LINE
  8
0
 62
     0
 10
14.0949
 20
46.0539
 30
0.0
 11
14.0078
 21
45.0267
 31
0.0
  0
LINE
  8
0
 62
     0
 10
14.0078
 20
45.0267
 30
0.0
 11
13.9211
 21
43.9997
 31
0.0
  0
LINE
  8
0
 62
     0
 10
13.9211
 20
43.9997
 30
0.0
 11
13.8319
 21
42.9746
 31
0.0
  0
LINE
  8
0
 62
     0
 10
13.8319
 20
42.9746
 30
0.0
 11
13.7439
 21
41.9472
 31
0.0
  0
LINE
  8
0
 62
     0
 10
11.3949
 20
42.4174
 30
0.0
 11
10.6849
 21
44.1157
 31
0.0
  0
LINE
  8
0
 62
     0
 10
10.6849
 20
44.1157
 30
0.0
 11
9.97601
 21
45.814
 31
0.0
  0
LINE
  8
0
 62
     0
 10
9.97601
 20
45.814
 30
0.0
 11
9.26617
 21
47.5142
 31
0.0
  0
LINE
  8
0
 62
     0
 10
9.26617
 20
47.5142
 30
0.0
 11
8.55729
 21
49.2125
 31
0.0
  0
LINE
  8
0
 62
     0
 10
8.55729
 20
49.2125
 30
0.0
 11
8.34722
 21
48.4136
 31
0.0
  0
LINE
  8
0
 62
     0
 10
8.34722
 20
48.4136
 30
0.0
 11
8.1365
 21
47.6168
 31
0.0
  0
LINE
  8
0
 62
     0
 10
8.1365
 20
47.6168
 30
0.0
 11
7.92676
 21
46.8187
 31
0.0
  0
LINE
  8
0
 62
     0
 10
7.92676
 20
46.8187
 30
0.0
 11
7.71685
 21
46.0199
 31
0.0
  0
LINE
  8
0
 62
     0
 10
7.71685
 20
46.0199
 30
0.0
 11
8.63769
 21
45.1206
 31
0.0
  0
LINE
  8
0
 62
     0
 10
8.63769
 20
45.1206
 30
0.0
 11
9.55626
 21
44.2192
 31
0.0
  0
LINE
  8
0
 62
     0
 10
9.55626
 20
44.2192
 30
0.0
 11
10.475
 21
43.3178
 31
0.0
  0
LINE
  8
0
 62
     0
 10
10.475
 20
43.3178
 30
0.0
 11
11.3949
 21
42.4174
 31
0.0
  0
ENDSEC
  0
EOF
