  0
SECTION
  2
HEADER
  9
$ACADVER
  1
AC1009
  9
$EXTMIN
 10
0.0
 20
0.0
 30
0.0
  9
$EXTMAX
 10
1000.0
 20
1000.0
 30
0.0
  9
$FILLMODE
 70
 0
  9
$SPLFRAME
 70
 1
  0
ENDSEC
  0
SECTION
  2
TABLES
  0
TABLE
  2
LAYER
 70
1
  0
LAYER
  2
0
 70
     0
 62
     7
  6
CONTINUOUS
  0
ENDTAB
  0
ENDSEC
  0
SECTION
  2
ENTITIES
  0
LINE
  8
0
 62
     0
 10
38.9482
 20
41.7326
 30
0.0
 11
39.0364
 21
41.4904
 31
0.0
  0
LINE
  8
0
 62
     0
 10
39.0364
 20
41.4904
 30
0.0
 11
39.1267
 21
41.2474
 31
0.0
  0
LINE
  8
0
 62
     0
 10
39.1267
 20
41.2474
 30
0.0
 11
39.2143
 21
41.0051
 31
0.0
  0
LINE
  8
0
 62
     0
 10
39.2143
 20
41.0051
 30
0.0
 11
39.3028
 21
40.7629
 31
0.0
  0
LINE
  8
0
 62
     0
 10
39.3028
 20
40.7629
 30
0.0
 11
39.2143
 21
40.519
 31
0.0
  0
LINE
  8
0
 62
     0
 10
39.2143
 20
40.519
 30
0.0
 11
39.1267
 21
40.2778
 31
0.0
  0
LINE
  8
0
 62
     0
 10
39.1267
 20
40.2778
 30
0.0
 11
39.0364
 21
40.0337
 31
0.0
  0
LINE
  8
0
 62
     0
 10
39.0364
 20
40.0337
 30
0.0
 11
38.9482
 21
39.7926
 31
0.0
  0
LINE
  8
0
 62
     0
 10
38.9482
 20
39.7926
 30
0.0
 11
40.7854
 21
39.2443
 31
0.0
  0
LINE
  8
0
 62
     0
 10
40.7854
 20
39.2443
 30
0.0
 11
42.6236
 21
38.6981
 31
0.0
  0
LINE
  8
0
 62
     0
 10
42.6236
 20
38.6981
 30
0.0
 11
44.4586
 21
38.1497
 31
0.0
  0
LINE
  8
0
 62
     0
 10
44.4586
 20
38.1497
 30
0.0
 11
46.2954
 21
37.6026
 31
0.0
  0
LINE
  8
0
 62
     0
 10
46.2954
 20
37.6026
 30
0.0
 11
44.8317
 21
38.3911
 31
0.0
  0
LINE
  8
0
 62
     0
 10
44.8317
 20
38.3911
 30
0.0
 11
43.3697
 21
39.1817
 31
0.0
  0
LINE
  8
0
 62
     0
 10
43.3697
 20
39.1817
 30
0.0
 11
41.9044
 21
39.9728
 31
0.0
  0
LINE
  8
0
 62
     0
 10
41.9044
 20
39.9728
 30
0.0
 11
40.441
 21
40.7629
 31
0.0
  0
LINE
  8
0
 62
     0
 10
40.441
 20
40.7629
 30
0.0
 11
41.9044
 21
41.5524
 31
0.0
  0
LINE
  8
0
 62
     0
 10
41.9044
 20
41.5524
 30
0.0
 11
43.3697
 21
42.3435
 31
0.0
  0
LINE
  8
0
 62
     0
 10
43.3697
 20
42.3435
 30
0.0
 11
44.8317
 21
43.1331
 31
0.0
  0
LINE
  8
0
 62
     0
 10
44.8317
 20
43.1331
 30
0.0
 11
46.2954
 21
43.9242
 31
0.0
  0
LINE
  8
0
 62
     0
 10
46.2954
 20
43.9242
 30
0.0
 11
44.4586
 21
43.3744
 31
0.0
  0
LINE
  8
0
 62
     0
 10
44.4586
 20
43.3744
 30
0.0
 11
42.6236
 21
42.8286
 31
0.0
  0
LINE
  8
0
 62
     0
 10
42.6236
 20
42.8286
 30
0.0
 11
40.7854
 21
42.2815
 31
0.0
  0
LINE
  8
0
 62
     0
 10
40.7854
 20
42.2815
 30
0.0
 11
38.9482
 21
41.7326
 31
0.0
  0
LINE
  8
0
 62
     0
 10
34.1317
 20
40.7629
 30
0.0
 11
32.6675
 21
39.9728
 31
0.0
  0
LINE
  8
0
 62
     0
 10
32.6675
 20
39.9728
 30
0.0
 11
31.204
 21
39.1817
 31
0.0
  0
LINE
  8
0
 62
     0
 10
31.204
 20
39.1817
 30
0.0
 11
29.7399
 21
38.3911
 31
0.0
  0
LINE
  8
0
 62
     0
 10
29.7399
 20
38.3911
 30
0.0
 11
28.2775
 21
37.6026
 31
0.0
  0
LINE
  8
0
 62
     0
 10
28.2775
 20
37.6026
 30
0.0
 11
30.1146
 21
38.1497
 31
0.0
  0
LINE
  8
0
 62
     0
 10
30.1146
 20
38.1497
 30
0.0
 11
31.9514
 21
38.6981
 31
0.0
  0
LINE
  8
0
 62
     0
 10
31.9514
 20
38.6981
 30
0.0
 11
33.7869
 21
39.2443
 31
0.0
  0
LINE
  8
0
 62
     0
 10
33.7869
 20
39.2443
 30
0.0
 11
35.6253
 21
39.7926
 31
0.0
  0
LINE
  8
0
 62
     0
 10
35.6253
 20
39.7926
 30
0.0
 11
35.5357
 21
40.0337
 31
0.0
  0
LINE
  8
0
 62
     0
 10
35.5357
 20
40.0337
 30
0.0
 11
35.4486
 21
40.2778
 31
0.0
  0
LINE
  8
0
 62
     0
 10
35.4486
 20
40.2778
 30
0.0
 11
35.3611
 21
40.519
 31
0.0
  0
LINE
  8
0
 62
     0
 10
35.3611
 20
40.519
 30
0.0
 11
35.2733
 21
40.7629
 31
0.0
  0
LINE
  8
0
 62
     0
 10
35.2733
 20
40.7629
 30
0.0
 11
35.3611
 21
41.0051
 31
0.0
  0
LINE
  8
0
 62
     0
 10
35.3611
 20
41.0051
 30
0.0
 11
35.4486
 21
41.2474
 31
0.0
  0
LINE
  8
0
 62
     0
 10
35.4486
 20
41.2474
 30
0.0
 11
35.5357
 21
41.4904
 31
0.0
  0
LINE
  8
0
 62
     0
 10
35.5357
 20
41.4904
 30
0.0
 11
35.6253
 21
41.7326
 31
0.0
  0
LINE
  8
0
 62
     0
 10
35.6253
 20
41.7326
 30
0.0
 11
33.7869
 21
42.2815
 31
0.0
  0
LINE
  8
0
 62
     0
 10
33.7869
 20
42.2815
 30
0.0
 11
31.9514
 21
42.8286
 31
0.0
  0
LINE
  8
0
 62
     0
 10
31.9514
 20
42.8286
 30
0.0
 11
30.1146
 21
43.3744
 31
0.0
  0
LINE
  8
0
 62
     0
 10
30.1146
 20
43.3744
 30
0.0
 11
28.2775
 21
43.9242
 31
0.0
  0
LINE
  8
0
 62
     0
 10
28.2775
 20
43.9242
 30
0.0
 11
29.7399
 21
43.1331
 31
0.0
  0
LINE
  8
0
 62
     0
 10
29.7399
 20
43.1331
 30
0.0
 11
31.204
 21
42.3435
 31
0.0
  0
LINE
  8
0
 62
     0
 10
31.204
 20
42.3435
 30
0.0
 11
32.6675
 21
41.5524
 31
0.0
  0
LINE
  8
0
 62
     0
 10
32.6675
 20
41.5524
 30
0.0
 11
34.1317
 21
40.7629
 31
0.0
  0
LINE
  8
0
 62
     0
 10
37.2879
 20
42.2188
 30
0.0
 11
37.5315
 21
42.1311
 31
0.0
  0
LINE
  8
0
 62
     0
 10
37.5315
 20
42.1311
 30
0.0
 11
37.7722
 21
42.0428
 31
0.0
  0
LINE
  8
0
 62
     0
 10
37.7722
 20
42.0428
 30
0.0
 11
38.0142
 21
41.9542
 31
0.0
  0
LINE
  8
0
 62
     0
 10
38.0142
 20
41.9542
 30
0.0
 11
38.2556
 21
41.8658
 31
0.0
  0
LINE
  8
0
 62
     0
 10
38.2556
 20
41.8658
 30
0.0
 11
38.8053
 21
43.7015
 31
0.0
  0
LINE
  8
0
 62
     0
 10
38.8053
 20
43.7015
 30
0.0
 11
39.3514
 21
45.5397
 31
0.0
  0
LINE
  8
0
 62
     0
 10
39.3514
 20
45.5397
 30
0.0
 11
39.9003
 21
47.3768
 31
0.0
  0
LINE
  8
0
 62
     0
 10
39.9003
 20
47.3768
 30
0.0
 11
40.45
 21
49.2125
 31
0.0
  0
LINE
  8
0
 62
     0
 10
40.45
 20
49.2125
 30
0.0
 11
39.6597
 21
47.7499
 31
0.0
  0
LINE
  8
0
 62
     0
 10
39.6597
 20
47.7499
 30
0.0
 11
38.869
 21
46.2858
 31
0.0
  0
LINE
  8
0
 62
     0
 10
38.869
 20
46.2858
 30
0.0
 11
38.0781
 21
44.8232
 31
0.0
  0
LINE
  8
0
 62
     0
 10
38.0781
 20
44.8232
 30
0.0
 11
37.2879
 21
43.3597
 31
0.0
  0
LINE
  8
0
 62
     0
 10
37.2879
 20
43.3597
 30
0.0
 11
36.4975
 21
44.8232
 31
0.0
  0
LINE
  8
0
 62
     0
 10
36.4975
 20
44.8232
 30
0.0
 11
35.7058
 21
46.2858
 31
0.0
  0
LINE
  8
0
 62
     0
 10
35.7058
 20
46.2858
 30
0.0
 11
34.915
 21
47.7499
 31
0.0
  0
LINE
  8
0
 62
     0
 10
34.915
 20
47.7499
 30
0.0
 11
34.1239
 21
49.2125
 31
0.0
  0
LINE
  8
0
 62
     0
 10
34.1239
 20
49.2125
 30
0.0
 11
34.6729
 21
47.3768
 31
0.0
  0
LINE
  8
0
 62
     0
 10
34.6729
 20
47.3768
 30
0.0
 11
35.2212
 21
45.5397
 31
0.0
  0
LINE
  8
0
 62
     0
 10
35.2212
 20
45.5397
 30
0.0
 11
35.7694
 21
43.7015
 31
0.0
  0
LINE
  8
0
 62
     0
 10
35.7694
 20
43.7015
 30
0.0
 11
36.3185
 21
41.8658
 31
0.0
  0
LINE
  8
0
 62
     0
 10
36.3185
 20
41.8658
 30
0.0
 11
36.5604
 21
41.9542
 31
0.0
  0
LINE
  8
0
 62
     0
 10
36.5604
 20
41.9542
 30
0.0
 11
36.8035
 21
42.0428
 31
0.0
  0
LINE
  8
0
 62
     0
 10
36.8035
 20
42.0428
 30
0.0
 11
37.0454
 21
42.1311
 31
0.0
  0
LINE
  8
0
 62
     0
 10
37.0454
 20
42.1311
 30
0.0
 11
37.2879
 21
42.2188
 31
0.0
  0
LINE
  8
0
 62
     0
 10
30.1122
 20
14.5586
 30
0.0
 11
29.7596
 21
12.3313
 31
0.0
  0
LINE
  8
0
 62
     0
 10
29.7596
 20
12.3313
 30
0.0
 11
29.4079
 21
10.1038
 31
0.0
  0
LINE
  8
0
 62
     0
 10
29.4079
 20
10.1038
 30
0.0
 11
29.055
 21
7.875
 31
0.0
  0
LINE
  8
0
 62
     0
 10
29.055
 20
7.875
 30
0.0
 11
28.7017
 21
5.64757
 31
0.0
  0
LINE
  8
0
 62
     0
 10
28.7017
 20
5.64757
 30
0.0
 11
26.6942
 21
7.15001
 31
0.0
  0
LINE
  8
0
 62
     0
 10
26.6942
 20
7.15001
 30
0.0
 11
24.6893
 21
8.64963
 31
0.0
  0
LINE
  8
0
 62
     0
 10
24.6893
 20
8.64963
 30
0.0
 11
22.6833
 21
10.1496
 31
0.0
  0
LINE
  8
0
 62
     0
 10
22.6833
 20
10.1496
 30
0.0
 11
20.6761
 21
11.6496
 31
0.0
  0
LINE
  8
0
 62
     0
 10
20.6761
 20
11.6496
 30
0.0
 11
21.136
 21
14.1181
 31
0.0
  0
LINE
  8
0
 62
     0
 10
21.136
 20
14.1181
 30
0.0
 11
21.5947
 21
16.586
 31
0.0
  0
LINE
  8
0
 62
     0
 10
21.5947
 20
16.586
 30
0.0
 11
22.0553
 21
19.0549
 31
0.0
  0
LINE
  8
0
 62
     0
 10
22.0553
 20
19.0549
 30
0.0
 11
22.5167
 21
21.5207
 31
0.0
  0
LINE
  8
0
 62
     0
 10
22.5167
 20
21.5207
 30
0.0
 11
22.5561
 21
21.5174
 31
0.0
  0
LINE
  8
0
 62
     0
 10
22.5561
 20
21.5174
 30
0.0
 11
22.596
 21
21.5122
 31
0.0
  0
LINE
  8
0
 62
     0
 10
22.596
 20
21.5122
 30
0.0
 11
22.6357
 21
21.5071
 31
0.0
  0
LINE
  8
0
 62
     0
 10
22.6357
 20
21.5071
 30
0.0
 11
22.6768
 21
21.5028
 31
0.0
  0
LINE
  8
0
 62
     0
 10
22.6768
 20
21.5028
 30
0.0
 11
22.6783
 21
21.5251
 31
0.0
  0
LINE
  8
0
 62
     0
 10
22.6783
 20
21.5251
 30
0.0
 11
22.6793
 21
21.5461
 31
0.0
  0
LINE
  8
0
 62
     0
 10
22.6793
 20
21.5461
 30
0.0
 11
22.6808
 21
21.5657
 31
0.0
  0
LINE
  8
0
 62
     0
 10
22.6808
 20
21.5657
 30
0.0
 11
22.6817
 21
21.5885
 31
0.0
  0
LINE
  8
0
 62
     0
 10
22.6817
 20
21.5885
 30
0.0
 11
24.5388
 21
19.8331
 31
0.0
  0
LINE
  8
0
 62
     0
 10
24.5388
 20
19.8331
 30
0.0
 11
26.3968
 21
18.0774
 31
0.0
  0
LINE
  8
0
 62
     0
 10
26.3968
 20
18.0774
 30
0.0
 11
28.2554
 21
16.3201
 31
0.0
  0
LINE
  8
0
 62
     0
 10
28.2554
 20
16.3201
 30
0.0
 11
30.1122
 21
14.5586
 31
0.0
  0
LINE
  8
0
 62
     0
 10
30.1122
 20
14.5586
 30
0.0
 11
30.1122
 21
14.5586
 31
0.0
  0
LINE
  8
0
 62
     0
 10
24.2986
 20
23.4304
 30
0.0
 11
26.7668
 21
24.2694
 31
0.0
  0
LINE
  8
0
 62
     0
 10
26.7668
 20
24.2694
 30
0.0
 11
29.2336
 21
25.1101
 31
0.0
  0
LINE
  8
0
 62
     0
 10
29.2336
 20
25.1101
 30
0.0
 11
31.7011
 21
25.9507
 31
0.0
  0
LINE
  8
0
 62
     0
 10
31.7011
 20
25.9507
 30
0.0
 11
34.1674
 21
26.7907
 31
0.0
  0
LINE
  8
0
 62
     0
 10
34.1674
 20
26.7907
 30
0.0
 11
36.0419
 21
25.0021
 31
0.0
  0
LINE
  8
0
 62
     0
 10
36.0419
 20
25.0021
 30
0.0
 11
37.9139
 21
23.2138
 31
0.0
  0
LINE
  8
0
 62
     0
 10
37.9139
 20
23.2138
 30
0.0
 11
39.7854
 21
21.4264
 31
0.0
  0
LINE
  8
0
 62
     0
 10
39.7854
 20
21.4264
 30
0.0
 11
41.6583
 21
19.6381
 31
0.0
  0
LINE
  8
0
 62
     0
 10
41.6583
 20
19.6381
 30
0.0
 11
39.5521
 21
18.9304
 31
0.0
  0
LINE
  8
0
 62
     0
 10
39.5521
 20
18.9304
 30
0.0
 11
37.4431
 21
18.2214
 31
0.0
  0
LINE
  8
0
 62
     0
 10
37.4431
 20
18.2214
 30
0.0
 11
35.3358
 21
17.514
 31
0.0
  0
LINE
  8
0
 62
     0
 10
35.3358
 20
17.514
 30
0.0
 11
33.2287
 21
16.8061
 31
0.0
  0
LINE
  8
0
 62
     0
 10
33.2287
 20
16.8061
 30
0.0
 11
30.5557
 21
18.6693
 31
0.0
  0
LINE
  8
0
 62
     0
 10
30.5557
 20
18.6693
 30
0.0
 11
27.9953
 21
20.4713
 31
0.0
  0
LINE
  8
0
 62
     0
 10
27.9953
 20
20.4713
 30
0.0
 11
25.7461
 21
22.0622
 31
0.0
  0
LINE
  8
0
 62
     0
 10
25.7461
 20
22.0622
 30
0.0
 11
24.0151
 21
23.2924
 31
0.0
  0
LINE
  8
0
 62
     0
 10
24.0151
 20
23.2924
 30
0.0
 11
24.0871
 21
23.3257
 31
0.0
  0
LINE
  8
0
 62
     0
 10
24.0871
 20
23.3257
 30
0.0
 11
24.1606
 21
23.3606
 31
0.0
  0
LINE
  8
0
 62
     0
 10
24.1606
 20
23.3606
 30
0.0
 11
24.2325
 21
23.3956
 31
0.0
  0
LINE
  8
0
 62
     0
 10
24.2325
 20
23.3956
 30
0.0
 11
24.2986
 21
23.4304
 31
0.0
  0
LINE
  8
0
 62
     0
 10
24.2986
 20
23.4304
 30
0.0
 11
24.2986
 21
23.4304
 31
0.0
  0
LINE
  8
0
 62
     0
 10
37.2879
 20
38.0775
 30
0.0
 11
37.7222
 21
37.2728
 31
0.0
  0
LINE
  8
0
 62
     0
 10
37.7222
 20
37.2728
 30
0.0
 11
38.1572
 21
36.4681
 31
0.0
  0
LINE
  8
0
 62
     0
 10
38.1572
 20
36.4681
 30
0.0
 11
38.594
 21
35.6633
 31
0.0
  0
LINE
  8
0
 62
     0
 10
38.594
 20
35.6633
 30
0.0
 11
39.0281
 21
34.8588
 31
0.0
  0
LINE
  8
0
 62
     0
 10
39.0281
 20
34.8588
 30
0.0
 11
38.7208
 21
35.0193
 31
0.0
  0
LINE
  8
0
 62
     0
 10
38.7208
 20
35.0193
 30
0.0
 11
38.4146
 21
35.1807
 31
0.0
  0
LINE
  8
0
 62
     0
 10
38.4146
 20
35.1807
 30
0.0
 11
38.1086
 21
35.3413
 31
0.0
  0
LINE
  8
0
 62
     0
 10
38.1086
 20
35.3413
 30
0.0
 11
37.8021
 21
35.5019
 31
0.0
  0
LINE
  8
0
 62
     0
 10
37.8021
 20
35.5019
 30
0.0
 11
38.5531
 21
34.5576
 31
0.0
  0
LINE
  8
0
 62
     0
 10
38.5531
 20
34.5576
 30
0.0
 11
39.2472
 21
33.5676
 31
0.0
  0
LINE
  8
0
 62
     0
 10
39.2472
 20
33.5676
 30
0.0
 11
39.8799
 21
32.5353
 31
0.0
  0
LINE
  8
0
 62
     0
 10
39.8799
 20
32.5353
 30
0.0
 11
40.4482
 21
31.4596
 31
0.0
  0
LINE
  8
0
 62
     0
 10
40.4482
 20
31.4596
 30
0.0
 11
39.4743
 21
31.0506
 31
0.0
  0
LINE
  8
0
 62
     0
 10
39.4743
 20
31.0506
 30
0.0
 11
38.5021
 21
30.6411
 31
0.0
  0
LINE
  8
0
 62
     0
 10
38.5021
 20
30.6411
 30
0.0
 11
37.5292
 21
30.2332
 31
0.0
  0
LINE
  8
0
 62
     0
 10
37.5292
 20
30.2332
 30
0.0
 11
36.5556
 21
29.8243
 31
0.0
  0
LINE
  8
0
 62
     0
 10
36.5556
 20
29.8243
 30
0.0
 11
36.5222
 21
31.2197
 31
0.0
  0
LINE
  8
0
 62
     0
 10
36.5222
 20
31.2197
 30
0.0
 11
36.4858
 21
32.6161
 31
0.0
  0
LINE
  8
0
 62
     0
 10
36.4858
 20
32.6161
 30
0.0
 11
36.4489
 21
34.0156
 31
0.0
  0
LINE
  8
0
 62
     0
 10
36.4489
 20
34.0156
 30
0.0
 11
36.415
 21
35.411
 31
0.0
  0
LINE
  8
0
 62
     0
 10
36.415
 20
35.411
 30
0.0
 11
36.2169
 21
35.3065
 31
0.0
  0
LINE
  8
0
 62
     0
 10
36.2169
 20
35.3065
 30
0.0
 11
36.0199
 21
35.2019
 31
0.0
  0
LINE
  8
0
 62
     0
 10
36.0199
 20
35.2019
 30
0.0
 11
35.8204
 21
35.0975
 31
0.0
  0
LINE
  8
0
 62
     0
 10
35.8204
 20
35.0975
 30
0.0
 11
35.624
 21
34.9931
 31
0.0
  0
LINE
  8
0
 62
     0
 10
35.624
 20
34.9931
 30
0.0
 11
36.0403
 21
35.7644
 31
0.0
  0
LINE
  8
0
 62
     0
 10
36.0403
 20
35.7644
 30
0.0
 11
36.4563
 21
36.5337
 31
0.0
  0
LINE
  8
0
 62
     0
 10
36.4563
 20
36.5337
 30
0.0
 11
36.8729
 21
37.305
 31
0.0
  0
LINE
  8
0
 62
     0
 10
36.8729
 20
37.305
 30
0.0
 11
37.2879
 21
38.0775
 31
0.0
  0
LINE
  8
0
 62
     0
 10
37.2879
 20
38.0775
 30
0.0
 11
37.2879
 21
38.0775
 31
0.0
  0
LINE
  8
0
 62
     0
 10
42.3986
 20
22.9849
 30
0.0
 11
42.3975
 21
22.8292
 31
0.0
  0
LINE
  8
0
 62
     0
 10
42.3975
 20
22.8292
 30
0.0
 11
42.3924
 21
22.6739
 31
0.0
  0
LINE
  8
0
 62
     0
 10
42.3924
 20
22.6739
 30
0.0
 11
42.3875
 21
22.52
 31
0.0
  0
LINE
  8
0
 62
     0
 10
42.3875
 20
22.52
 30
0.0
 11
42.3836
 21
22.3653
 31
0.0
  0
LINE
  8
0
 62
     0
 10
42.3836
 20
22.3653
 30
0.0
 11
41.1213
 21
23.7414
 31
0.0
  0
LINE
  8
0
 62
     0
 10
41.1213
 20
23.7414
 30
0.0
 11
39.8601
 21
25.1165
 31
0.0
  0
LINE
  8
0
 62
     0
 10
39.8601
 20
25.1165
 30
0.0
 11
38.5993
 21
26.4924
 31
0.0
  0
LINE
  8
0
 62
     0
 10
38.5993
 20
26.4924
 30
0.0
 11
37.3365
 21
27.8675
 31
0.0
  0
LINE
  8
0
 62
     0
 10
37.3365
 20
27.8675
 30
0.0
 11
38.3431
 21
28.2108
 31
0.0
  0
LINE
  8
0
 62
     0
 10
38.3431
 20
28.2108
 30
0.0
 11
39.3479
 21
28.5531
 31
0.0
  0
LINE
  8
0
 62
     0
 10
39.3479
 20
28.5531
 30
0.0
 11
40.3528
 21
28.8949
 31
0.0
  0
LINE
  8
0
 62
     0
 10
40.3528
 20
28.8949
 30
0.0
 11
41.3594
 21
29.2381
 31
0.0
  0
LINE
  8
0
 62
     0
 10
41.3594
 20
29.2381
 30
0.0
 11
41.8056
 21
27.7408
 31
0.0
  0
LINE
  8
0
 62
     0
 10
41.8056
 20
27.7408
 30
0.0
 11
42.1312
 21
26.1975
 31
0.0
  0
LINE
  8
0
 62
     0
 10
42.1312
 20
26.1975
 30
0.0
 11
42.3317
 21
24.6103
 31
0.0
  0
LINE
  8
0
 62
     0
 10
42.3317
 20
24.6103
 30
0.0
 11
42.3986
 21
22.9849
 31
0.0
  0
LINE
  8
0
 62
     0
 10
42.3986
 20
22.9849
 30
0.0
 11
42.3986
 21
22.9849
 31
0.0
  0
LINE
  8
0
 62
     0
 10
39.3961
 20
12.6337
 30
0.0
 11
38.5107
 21
13.209
 31
0.0
  0
LINE
  8
0
 62
     0
 10
38.5107
 20
13.209
 30
0.0
 11
37.4933
 21
13.8844
 31
0.0
  0
LINE
  8
0
 62
     0
 10
37.4933
 20
13.8844
 30
0.0
 11
36.3706
 21
14.6431
 31
0.0
  0
LINE
  8
0
 62
     0
 10
36.3706
 20
14.6431
 30
0.0
 11
35.1625
 21
15.4653
 31
0.0
  0
LINE
  8
0
 62
     0
 10
35.1625
 20
15.4653
 30
0.0
 11
36.7236
 21
15.8153
 31
0.0
  0
LINE
  8
0
 62
     0
 10
36.7236
 20
15.8153
 30
0.0
 11
38.2854
 21
16.1656
 31
0.0
  0
LINE
  8
0
 62
     0
 10
38.2854
 20
16.1656
 30
0.0
 11
39.8456
 21
16.5154
 31
0.0
  0
LINE
  8
0
 62
     0
 10
39.8456
 20
16.5154
 30
0.0
 11
41.4076
 21
16.8647
 31
0.0
  0
LINE
  8
0
 62
     0
 10
41.4076
 20
16.8647
 30
0.0
 11
41
 21
15.7553
 31
0.0
  0
LINE
  8
0
 62
     0
 10
41
 20
15.7553
 30
0.0
 11
40.5268
 21
14.6783
 31
0.0
  0
LINE
  8
0
 62
     0
 10
40.5268
 20
14.6783
 30
0.0
 11
39.9933
 21
13.6357
 31
0.0
  0
LINE
  8
0
 62
     0
 10
39.9933
 20
13.6357
 30
0.0
 11
39.3961
 21
12.6337
 31
0.0
  0
LINE
  8
0
 62
     0
 10
39.3961
 20
12.6337
 30
0.0
 11
39.3961
 21
12.6337
 31
0.0
  0
LINE
  8
0
 62
     0
 10
31.0697
 20
5.34169
 30
0.0
 11
31.459
 21
7.05311
 31
0.0
  0
LINE
  8
0
 62
     0
 10
31.459
 20
7.05311
 30
0.0
 11
31.8483
 21
8.76421
 31
0.0
  0
LINE
  8
0
 62
     0
 10
31.8483
 20
8.76421
 30
0.0
 11
32.2358
 21
10.476
 31
0.0
  0
LINE
  8
0
 62
     0
 10
32.2358
 20
10.476
 30
0.0
 11
32.6251
 21
12.1868
 31
0.0
  0
LINE
  8
0
 62
     0
 10
32.6251
 20
12.1868
 30
0.0
 11
33.5224
 21
11.34
 31
0.0
  0
LINE
  8
0
 62
     0
 10
33.5224
 20
11.34
 30
0.0
 11
34.4199
 21
10.492
 31
0.0
  0
LINE
  8
0
 62
     0
 10
34.4199
 20
10.492
 30
0.0
 11
35.3178
 21
9.64378
 31
0.0
  0
LINE
  8
0
 62
     0
 10
35.3178
 20
9.64378
 30
0.0
 11
36.2146
 21
8.79514
 31
0.0
  0
LINE
  8
0
 62
     0
 10
36.2146
 20
8.79514
 30
0.0
 11
35.041
 21
7.78401
 31
0.0
  0
LINE
  8
0
 62
     0
 10
35.041
 20
7.78401
 30
0.0
 11
33.7885
 21
6.866
 31
0.0
  0
LINE
  8
0
 62
     0
 10
33.7885
 20
6.866
 30
0.0
 11
32.4628
 21
6.05208
 31
0.0
  0
LINE
  8
0
 62
     0
 10
32.4628
 20
6.05208
 30
0.0
 11
31.0697
 21
5.34169
 31
0.0
  0
LINE
  8
0
 62
     0
 10
31.0697
 20
5.34169
 30
0.0
 11
31.0697
 21
5.34169
 31
0.0
  0
LINE
  8
0
 62
     0
 10
22.9867
 20
3.57047
 30
0.0
 11
22.03
 21
3.59511
 31
0.0
  0
LINE
  8
0
 62
     0
 10
22.03
 20
3.59511
 30
0.0
 11
21.0849
 21
3.66596
 31
0.0
  0
LINE
  8
0
 62
     0
 10
21.0849
 20
3.66596
 30
0.0
 11
20.1519
 21
3.78228
 31
0.0
  0
LINE
  8
0
 62
     0
 10
20.1519
 20
3.78228
 30
0.0
 11
19.2342
 21
3.93957
 31
0.0
  0
LINE
  8
0
 62
     0
 10
19.2342
 20
3.93957
 30
0.0
 11
19.5068
 21
5.40001
 31
0.0
  0
LINE
  8
0
 62
     0
 10
19.5068
 20
5.40001
 30
0.0
 11
19.779
 21
6.85867
 31
0.0
  0
LINE
  8
0
 62
     0
 10
19.779
 20
6.85867
 30
0.0
 11
20.0515
 21
8.31771
 31
0.0
  0
LINE
  8
0
 62
     0
 10
20.0515
 20
8.31771
 30
0.0
 11
20.3236
 21
9.77675
 31
0.0
  0
LINE
  8
0
 62
     0
 10
20.3236
 20
9.77675
 30
0.0
 11
21.9085
 21
8.31629
 31
0.0
  0
LINE
  8
0
 62
     0
 10
21.9085
 20
8.31629
 30
0.0
 11
23.4926
 21
6.85385
 31
0.0
  0
LINE
  8
0
 62
     0
 10
23.4926
 20
6.85385
 30
0.0
 11
25.0771
 21
5.39339
 31
0.0
  0
LINE
  8
0
 62
     0
 10
25.0771
 20
5.39339
 30
0.0
 11
26.6631
 21
3.93261
 31
0.0
  0
LINE
  8
0
 62
     0
 10
26.6631
 20
3.93261
 30
0.0
 11
25.7628
 21
3.78054
 31
0.0
  0
LINE
  8
0
 62
     0
 10
25.7628
 20
3.78054
 30
0.0
 11
24.8486
 21
3.6684
 31
0.0
  0
LINE
  8
0
 62
     0
 10
24.8486
 20
3.6684
 30
0.0
 11
23.9215
 21
3.60032
 31
0.0
  0
LINE
  8
0
 62
     0
 10
23.9215
 20
3.60032
 30
0.0
 11
22.9867
 21
3.57047
 31
0.0
  0
LINE
  8
0
 62
     0
 10
22.9867
 20
3.57047
 30
0.0
 11
22.9867
 21
3.57047
 31
0.0
  0
LINE
  8
0
 62
     0
 10
9.97228
 20
11.5923
 30
0.0
 11
10.4372
 21
14.4044
 31
0.0
  0
LINE
  8
0
 62
     0
 10
10.4372
 20
14.4044
 30
0.0
 11
10.9027
 21
17.2181
 31
0.0
  0
LINE
  8
0
 62
     0
 10
10.9027
 20
17.2181
 30
0.0
 11
11.3676
 21
20.0311
 31
0.0
  0
LINE
  8
0
 62
     0
 10
11.3676
 20
20.0311
 30
0.0
 11
11.8317
 21
22.8444
 31
0.0
  0
LINE
  8
0
 62
     0
 10
11.8317
 20
22.8444
 30
0.0
 11
14.2721
 21
22.5424
 31
0.0
  0
LINE
  8
0
 62
     0
 10
14.2721
 20
22.5424
 30
0.0
 11
16.7119
 21
22.2389
 31
0.0
  0
LINE
  8
0
 62
     0
 10
16.7119
 20
22.2389
 30
0.0
 11
19.1525
 21
21.9354
 31
0.0
  0
LINE
  8
0
 62
     0
 10
19.1525
 20
21.9354
 30
0.0
 11
21.5912
 21
21.6343
 31
0.0
  0
LINE
  8
0
 62
     0
 10
21.5912
 20
21.6343
 30
0.0
 11
20.7988
 21
19.2949
 31
0.0
  0
LINE
  8
0
 62
     0
 10
20.7988
 20
19.2949
 30
0.0
 11
20.0057
 21
16.9529
 31
0.0
  0
LINE
  8
0
 62
     0
 10
20.0057
 20
16.9529
 30
0.0
 11
19.2121
 21
14.6118
 31
0.0
  0
LINE
  8
0
 62
     0
 10
19.2121
 20
14.6118
 30
0.0
 11
18.4183
 21
12.2726
 31
0.0
  0
LINE
  8
0
 62
     0
 10
18.4183
 20
12.2726
 30
0.0
 11
16.3075
 21
12.1028
 31
0.0
  0
LINE
  8
0
 62
     0
 10
16.3075
 20
12.1028
 30
0.0
 11
14.1957
 21
11.9333
 31
0.0
  0
LINE
  8
0
 62
     0
 10
14.1957
 20
11.9333
 30
0.0
 11
12.0841
 21
11.7642
 31
0.0
  0
LINE
  8
0
 62
     0
 10
12.0841
 20
11.7642
 30
0.0
 11
9.97228
 21
11.5923
 31
0.0
  0
LINE
  8
0
 62
     0
 10
9.97228
 20
11.5923
 30
0.0
 11
9.97228
 21
11.5923
 31
0.0
  0
LINE
  8
0
 62
     0
 10
15.9249
 20
4.90657
 30
0.0
 11
14.2696
 21
5.64513
 31
0.0
  0
LINE
  8
0
 62
     0
 10
14.2696
 20
5.64513
 30
0.0
 11
12.7011
 21
6.52951
 31
0.0
  0
LINE
  8
0
 62
     0
 10
12.7011
 20
6.52951
 30
0.0
 11
11.2259
 21
7.55003
 31
0.0
  0
LINE
  8
0
 62
     0
 10
11.2259
 20
7.55003
 30
0.0
 11
9.85411
 21
8.69997
 31
0.0
  0
LINE
  8
0
 62
     0
 10
9.85411
 20
8.69997
 30
0.0
 11
11.9397
 21
9.42708
 31
0.0
  0
LINE
  8
0
 62
     0
 10
11.9397
 20
9.42708
 30
0.0
 11
14.0268
 21
10.1545
 31
0.0
  0
LINE
  8
0
 62
     0
 10
14.0268
 20
10.1545
 30
0.0
 11
16.1128
 21
10.8823
 31
0.0
  0
LINE
  8
0
 62
     0
 10
16.1128
 20
10.8823
 30
0.0
 11
18.1983
 21
11.6097
 31
0.0
  0
LINE
  8
0
 62
     0
 10
18.1983
 20
11.6097
 30
0.0
 11
17.6324
 21
9.933
 31
0.0
  0
LINE
  8
0
 62
     0
 10
17.6324
 20
9.933
 30
0.0
 11
17.0639
 21
8.25797
 31
0.0
  0
LINE
  8
0
 62
     0
 10
17.0639
 20
8.25797
 30
0.0
 11
16.4953
 21
6.5816
 31
0.0
  0
LINE
  8
0
 62
     0
 10
16.4953
 20
6.5816
 30
0.0
 11
15.9249
 21
4.90657
 31
0.0
  0
LINE
  8
0
 62
     0
 10
15.9249
 20
4.90657
 30
0.0
 11
15.9249
 21
4.90657
 31
0.0
  0
LINE
  8
0
 62
     0
 10
3.57324
 20
22.9849
 30
0.0
 11
3.57443
 21
23.2065
 31
0.0
  0
LINE
  8
0
 62
     0
 10
3.57443
 20
23.2065
 30
0.0
 11
3.57937
 21
23.4267
 31
0.0
  0
LINE
  8
0
 62
     0
 10
3.57937
 20
23.4267
 30
0.0
 11
3.58599
 21
23.6478
 31
0.0
  0
LINE
  8
0
 62
     0
 10
3.58599
 20
23.6478
 30
0.0
 11
3.59446
 21
23.8668
 31
0.0
  0
LINE
  8
0
 62
     0
 10
3.59446
 20
23.8668
 30
0.0
 11
5.37414
 21
23.6468
 31
0.0
  0
LINE
  8
0
 62
     0
 10
5.37414
 20
23.6468
 30
0.0
 11
7.15419
 21
23.425
 31
0.0
  0
LINE
  8
0
 62
     0
 10
7.15419
 20
23.425
 30
0.0
 11
8.93386
 21
23.2049
 31
0.0
  0
LINE
  8
0
 62
     0
 10
8.93386
 20
23.2049
 30
0.0
 11
10.7123
 21
22.9849
 31
0.0
  0
LINE
  8
0
 62
     0
 10
10.7123
 20
22.9849
 30
0.0
 11
9.85667
 21
20.1328
 31
0.0
  0
LINE
  8
0
 62
     0
 10
9.85667
 20
20.1328
 30
0.0
 11
9.00103
 21
17.2811
 31
0.0
  0
LINE
  8
0
 62
     0
 10
9.00103
 20
17.2811
 30
0.0
 11
8.14529
 21
14.4281
 31
0.0
  0
LINE
  8
0
 62
     0
 10
8.14529
 20
14.4281
 30
0.0
 11
7.2895
 21
11.5764
 31
0.0
  0
LINE
  8
0
 62
     0
 10
7.2895
 20
11.5764
 30
0.0
 11
5.72358
 21
14.1125
 31
0.0
  0
LINE
  8
0
 62
     0
 10
5.72358
 20
14.1125
 30
0.0
 11
4.55474
 21
16.8861
 31
0.0
  0
LINE
  8
0
 62
     0
 10
4.55474
 20
16.8861
 30
0.0
 11
3.82314
 21
19.8571
 31
0.0
  0
LINE
  8
0
 62
     0
 10
3.82314
 20
19.8571
 30
0.0
 11
3.57324
 21
22.9849
 31
0.0
  0
LINE
  8
0
 62
     0
 10
3.57324
 20
22.9849
 30
0.0
 11
3.57324
 21
22.9849
 31
0.0
  0
LINE
  8
0
 62
     0
 10
7.19521
 20
37.141
 30
0.0
 11
7.29557
 21
36.5525
 31
0.0
  0
LINE
  8
0
 62
     0
 10
7.29557
 20
36.5525
 30
0.0
 11
7.3954
 21
35.9643
 31
0.0
  0
LINE
  8
0
 62
     0
 10
7.3954
 20
35.9643
 30
0.0
 11
7.49496
 21
35.376
 31
0.0
  0
LINE
  8
0
 62
     0
 10
7.49496
 20
35.376
 30
0.0
 11
7.59293
 21
34.7863
 31
0.0
  0
LINE
  8
0
 62
     0
 10
7.59293
 20
34.7863
 30
0.0
 11
7.92763
 21
35.2096
 31
0.0
  0
LINE
  8
0
 62
     0
 10
7.92763
 20
35.2096
 30
0.0
 11
8.27192
 21
35.6233
 31
0.0
  0
LINE
  8
0
 62
     0
 10
8.27192
 20
35.6233
 30
0.0
 11
8.62631
 21
36.0279
 31
0.0
  0
LINE
  8
0
 62
     0
 10
8.62631
 20
36.0279
 30
0.0
 11
8.99338
 21
36.4206
 31
0.0
  0
LINE
  8
0
 62
     0
 10
8.99338
 20
36.4206
 30
0.0
 11
9.53304
 21
33.5243
 31
0.0
  0
LINE
  8
0
 62
     0
 10
9.53304
 20
33.5243
 30
0.0
 11
10.1924
 21
29.9299
 31
0.0
  0
LINE
  8
0
 62
     0
 10
10.1924
 20
29.9299
 30
0.0
 11
10.8032
 21
26.4908
 31
0.0
  0
LINE
  8
0
 62
     0
 10
10.8032
 20
26.4908
 30
0.0
 11
11.1935
 21
24.0581
 31
0.0
  0
LINE
  8
0
 62
     0
 10
11.1935
 20
24.0581
 30
0.0
 11
9.29568
 21
24.0442
 31
0.0
  0
LINE
  8
0
 62
     0
 10
9.29568
 20
24.0442
 30
0.0
 11
7.39763
 21
24.0306
 31
0.0
  0
LINE
  8
0
 62
     0
 10
7.39763
 20
24.0306
 30
0.0
 11
5.49978
 21
24.016
 31
0.0
  0
LINE
  8
0
 62
     0
 10
5.49978
 20
24.016
 30
0.0
 11
3.60211
 21
24.0021
 31
0.0
  0
LINE
  8
0
 62
     0
 10
3.60211
 20
24.0021
 30
0.0
 11
3.61822
 21
24.2508
 31
0.0
  0
LINE
  8
0
 62
     0
 10
3.61822
 20
24.2508
 30
0.0
 11
3.63803
 21
24.4982
 31
0.0
  0
LINE
  8
0
 62
     0
 10
3.63803
 20
24.4982
 30
0.0
 11
3.66026
 21
24.7435
 31
0.0
  0
LINE
  8
0
 62
     0
 10
3.66026
 20
24.7435
 30
0.0
 11
3.68533
 21
24.9896
 31
0.0
  0
LINE
  8
0
 62
     0
 10
3.68533
 20
24.9896
 30
0.0
 11
3.09412
 21
24.8778
 31
0.0
  0
LINE
  8
0
 62
     0
 10
3.09412
 20
24.8778
 30
0.0
 11
2.50261
 21
24.7667
 31
0.0
  0
LINE
  8
0
 62
     0
 10
2.50261
 20
24.7667
 30
0.0
 11
1.90924
 21
24.6563
 31
0.0
  0
LINE
  8
0
 62
     0
 10
1.90924
 20
24.6563
 30
0.0
 11
1.31717
 21
24.5431
 31
0.0
  0
LINE
  8
0
 62
     0
 10
1.31717
 20
24.5431
 30
0.0
 11
2.78728
 21
27.6933
 31
0.0
  0
LINE
  8
0
 62
     0
 10
2.78728
 20
27.6933
 30
0.0
 11
4.25738
 21
30.8426
 31
0.0
  0
LINE
  8
0
 62
     0
 10
4.25738
 20
30.8426
 30
0.0
 11
5.72592
 21
33.9918
 31
0.0
  0
LINE
  8
0
 62
     0
 10
5.72592
 20
33.9918
 30
0.0
 11
7.19521
 21
37.141
 31
0.0
  0
LINE
  8
0
 62
     0
 10
7.19521
 20
37.141
 30
0.0
 11
7.19521
 21
37.141
 31
0.0
  0
LINE
  8
0
 62
     0
 10
22.3
 20
31.5467
 30
0.0
 11
22.1992
 21
29.6935
 31
0.0
  0
LINE
  8
0
 62
     0
 10
22.1992
 20
29.6935
 30
0.0
 11
22.0997
 21
27.8403
 31
0.0
  0
LINE
  8
0
 62
     0
 10
22.0997
 20
27.8403
 30
0.0
 11
21.9993
 21
25.9858
 31
0.0
  0
LINE
  8
0
 62
     0
 10
21.9993
 20
25.9858
 30
0.0
 11
21.8982
 21
24.1326
 31
0.0
  0
LINE
  8
0
 62
     0
 10
21.8982
 20
24.1326
 30
0.0
 11
19.8486
 21
24.1164
 31
0.0
  0
LINE
  8
0
 62
     0
 10
19.8486
 20
24.1164
 30
0.0
 11
17.8004
 21
24.1032
 31
0.0
  0
LINE
  8
0
 62
     0
 10
17.8004
 20
24.1032
 30
0.0
 11
15.7507
 21
24.0893
 31
0.0
  0
LINE
  8
0
 62
     0
 10
15.7507
 20
24.0893
 30
0.0
 11
13.7036
 21
24.0743
 31
0.0
  0
LINE
  8
0
 62
     0
 10
13.7036
 20
24.0743
 30
0.0
 11
12.8277
 21
27.2089
 31
0.0
  0
LINE
  8
0
 62
     0
 10
12.8277
 20
27.2089
 30
0.0
 11
11.9522
 21
30.3428
 31
0.0
  0
LINE
  8
0
 62
     0
 10
11.9522
 20
30.3428
 30
0.0
 11
11.0769
 21
33.4768
 31
0.0
  0
LINE
  8
0
 62
     0
 10
11.0769
 20
33.4768
 30
0.0
 11
10.2024
 21
36.611
 31
0.0
  0
LINE
  8
0
 62
     0
 10
10.2024
 20
36.611
 30
0.0
 11
13.227
 21
35.3438
 31
0.0
  0
LINE
  8
0
 62
     0
 10
13.227
 20
35.3438
 30
0.0
 11
16.2522
 21
34.0776
 31
0.0
  0
LINE
  8
0
 62
     0
 10
16.2522
 20
34.0776
 30
0.0
 11
19.2765
 21
32.8106
 31
0.0
  0
LINE
  8
0
 62
     0
 10
19.2765
 20
32.8106
 30
0.0
 11
22.3
 21
31.5467
 31
0.0
  0
LINE
  8
0
 62
     0
 10
22.3
 20
31.5467
 30
0.0
 11
22.3
 21
31.5467
 31
0.0
  0
LINE
  8
0
 62
     0
 10
22.3137
 20
44.4913
 30
0.0
 11
22.2753
 21
43.9615
 31
0.0
  0
LINE
  8
0
 62
     0
 10
22.2753
 20
43.9615
 30
0.0
 11
22.2381
 21
43.4315
 31
0.0
  0
LINE
  8
0
 62
     0
 10
22.2381
 20
43.4315
 30
0.0
 11
22.2007
 21
42.9018
 31
0.0
  0
LINE
  8
0
 62
     0
 10
22.2007
 20
42.9018
 30
0.0
 11
22.1617
 21
42.3717
 31
0.0
  0
LINE
  8
0
 62
     0
 10
22.1617
 20
42.3717
 30
0.0
 11
22.3425
 21
42.3808
 31
0.0
  0
LINE
  8
0
 62
     0
 10
22.3425
 20
42.3808
 30
0.0
 11
22.5239
 21
42.3869
 31
0.0
  0
LINE
  8
0
 62
     0
 10
22.5239
 20
42.3869
 30
0.0
 11
22.7071
 21
42.3919
 31
0.0
  0
LINE
  8
0
 62
     0
 10
22.7071
 20
42.3919
 30
0.0
 11
22.8907
 21
42.3946
 31
0.0
  0
LINE
  8
0
 62
     0
 10
22.8907
 20
42.3946
 30
0.0
 11
22.7974
 21
40.6569
 31
0.0
  0
LINE
  8
0
 62
     0
 10
22.7974
 20
40.6569
 30
0.0
 11
22.7046
 21
38.9181
 31
0.0
  0
LINE
  8
0
 62
     0
 10
22.7046
 20
38.9181
 30
0.0
 11
22.6096
 21
37.181
 31
0.0
  0
LINE
  8
0
 62
     0
 10
22.6096
 20
37.181
 30
0.0
 11
22.5178
 21
35.4432
 31
0.0
  0
LINE
  8
0
 62
     0
 10
22.5178
 20
35.4432
 30
0.0
 11
19.4321
 21
35.9682
 31
0.0
  0
LINE
  8
0
 62
     0
 10
19.4321
 20
35.9682
 30
0.0
 11
16.344
 21
36.4928
 31
0.0
  0
LINE
  8
0
 62
     0
 10
16.344
 20
36.4928
 30
0.0
 11
13.2568
 21
37.0165
 31
0.0
  0
LINE
  8
0
 62
     0
 10
13.2568
 20
37.0165
 30
0.0
 11
10.1701
 21
37.5414
 31
0.0
  0
LINE
  8
0
 62
     0
 10
10.1701
 20
37.5414
 30
0.0
 11
10.4489
 21
37.7828
 31
0.0
  0
LINE
  8
0
 62
     0
 10
10.4489
 20
37.7828
 30
0.0
 11
10.7345
 21
38.0179
 31
0.0
  0
LINE
  8
0
 62
     0
 10
10.7345
 20
38.0179
 30
0.0
 11
11.0245
 21
38.2478
 31
0.0
  0
LINE
  8
0
 62
     0
 10
11.0245
 20
38.2478
 30
0.0
 11
11.3166
 21
38.4728
 31
0.0
  0
LINE
  8
0
 62
     0
 10
11.3166
 20
38.4728
 30
0.0
 11
10.7593
 21
38.6122
 31
0.0
  0
LINE
  8
0
 62
     0
 10
10.7593
 20
38.6122
 30
0.0
 11
10.2024
 21
38.7506
 31
0.0
  0
LINE
  8
0
 62
     0
 10
10.2024
 20
38.7506
 30
0.0
 11
9.64426
 21
38.8894
 31
0.0
  0
LINE
  8
0
 62
     0
 10
9.64426
 20
38.8894
 30
0.0
 11
9.08783
 21
39.0276
 31
0.0
  0
LINE
  8
0
 62
     0
 10
9.08783
 20
39.0276
 30
0.0
 11
12.3949
 21
40.3935
 31
0.0
  0
LINE
  8
0
 62
     0
 10
12.3949
 20
40.3935
 30
0.0
 11
15.7024
 21
41.7589
 31
0.0
  0
LINE
  8
0
 62
     0
 10
15.7024
 20
41.7589
 30
0.0
 11
19.0106
 21
43.1246
 31
0.0
  0
LINE
  8
0
 62
     0
 10
19.0106
 20
43.1246
 30
0.0
 11
22.3137
 21
44.4913
 31
0.0
  0
LINE
  8
0
 62
     0
 10
22.3137
 20
44.4913
 30
0.0
 11
22.3137
 21
44.4913
 31
0.0
  0
LINE
  8
0
 62
     0
 10
0
 20
22.9849
 30
0.0
 11
1.80985
 21
14.0476
 31
0.0
  0
LINE
  8
0
 62
     0
 10
1.80985
 20
14.0476
 30
0.0
 11
6.73964
 21
6.73926
 31
0.0
  0
LINE
  8
0
 62
     0
 10
6.73964
 20
6.73926
 30
0.0
 11
14.0467
 21
1.80903
 31
0.0
  0
LINE
  8
0
 62
     0
 10
14.0467
 20
1.80903
 30
0.0
 11
22.9867
 21
-0
 31
0.0
  0
LINE
  8
0
 62
     0
 10
22.9867
 20
-0
 30
0.0
 11
31.9249
 21
1.80903
 31
0.0
  0
LINE
  8
0
 62
     0
 10
31.9249
 20
1.80903
 30
0.0
 11
39.2324
 21
6.73926
 31
0.0
  0
LINE
  8
0
 62
     0
 10
39.2324
 20
6.73926
 30
0.0
 11
44.1635
 21
14.0476
 31
0.0
  0
LINE
  8
0
 62
     0
 10
44.1635
 20
14.0476
 30
0.0
 11
45.9719
 21
22.9849
 31
0.0
  0
LINE
  8
0
 62
     0
 10
45.9719
 20
22.9849
 30
0.0
 11
45.7528
 21
26.1636
 31
0.0
  0
LINE
  8
0
 62
     0
 10
45.7528
 20
26.1636
 30
0.0
 11
45.1164
 21
29.2099
 31
0.0
  0
LINE
  8
0
 62
     0
 10
45.1164
 20
29.2099
 30
0.0
 11
44.0878
 21
32.0951
 31
0.0
  0
LINE
  8
0
 62
     0
 10
44.0878
 20
32.0951
 30
0.0
 11
42.7017
 21
34.7906
 31
0.0
  0
LINE
  8
0
 62
     0
 10
42.7017
 20
34.7906
 30
0.0
 11
42.7892
 21
34.279
 31
0.0
  0
LINE
  8
0
 62
     0
 10
42.7892
 20
34.279
 30
0.0
 11
42.875
 21
33.7676
 31
0.0
  0
LINE
  8
0
 62
     0
 10
42.875
 20
33.7676
 30
0.0
 11
42.9621
 21
33.2579
 31
0.0
  0
LINE
  8
0
 62
     0
 10
42.9621
 20
33.2579
 30
0.0
 11
43.0493
 21
32.7468
 31
0.0
  0
LINE
  8
0
 62
     0
 10
43.0493
 20
32.7468
 30
0.0
 11
42.2308
 21
33.176
 31
0.0
  0
LINE
  8
0
 62
     0
 10
42.2308
 20
33.176
 30
0.0
 11
41.4139
 21
33.605
 31
0.0
  0
LINE
  8
0
 62
     0
 10
41.4139
 20
33.605
 30
0.0
 11
40.5956
 21
34.0342
 31
0.0
  0
LINE
  8
0
 62
     0
 10
40.5956
 20
34.0342
 30
0.0
 11
39.7781
 21
34.4633
 31
0.0
  0
LINE
  8
0
 62
     0
 10
39.7781
 20
34.4633
 30
0.0
 11
39.3961
 21
35.7407
 31
0.0
  0
LINE
  8
0
 62
     0
 10
39.3961
 20
35.7407
 30
0.0
 11
39.0146
 21
37.0189
 31
0.0
  0
LINE
  8
0
 62
     0
 10
39.0146
 20
37.0189
 30
0.0
 11
38.6326
 21
38.2961
 31
0.0
  0
LINE
  8
0
 62
     0
 10
38.6326
 20
38.2961
 30
0.0
 11
38.2507
 21
39.5733
 31
0.0
  0
LINE
  8
0
 62
     0
 10
38.2507
 20
39.5733
 30
0.0
 11
38.0094
 21
39.4856
 31
0.0
  0
LINE
  8
0
 62
     0
 10
38.0094
 20
39.4856
 30
0.0
 11
37.7681
 21
39.3972
 31
0.0
  0
LINE
  8
0
 62
     0
 10
37.7681
 20
39.3972
 30
0.0
 11
37.5285
 21
39.3099
 31
0.0
  0
LINE
  8
0
 62
     0
 10
37.5285
 20
39.3099
 30
0.0
 11
37.2854
 21
39.2215
 31
0.0
  0
LINE
  8
0
 62
     0
 10
37.2854
 20
39.2215
 30
0.0
 11
37.0431
 21
39.3099
 31
0.0
  0
LINE
  8
0
 62
     0
 10
37.0431
 20
39.3099
 30
0.0
 11
36.8021
 21
39.3972
 31
0.0
  0
LINE
  8
0
 62
     0
 10
36.8021
 20
39.3972
 30
0.0
 11
36.5597
 21
39.4856
 31
0.0
  0
LINE
  8
0
 62
     0
 10
36.5597
 20
39.4856
 30
0.0
 11
36.3185
 21
39.5733
 31
0.0
  0
LINE
  8
0
 62
     0
 10
36.3185
 20
39.5733
 30
0.0
 11
35.9461
 21
38.324
 31
0.0
  0
LINE
  8
0
 62
     0
 10
35.9461
 20
38.324
 30
0.0
 11
35.5732
 21
37.0764
 31
0.0
  0
LINE
  8
0
 62
     0
 10
35.5732
 20
37.0764
 30
0.0
 11
35.1997
 21
35.8275
 31
0.0
  0
LINE
  8
0
 62
     0
 10
35.1997
 20
35.8275
 30
0.0
 11
34.8267
 21
34.579
 31
0.0
  0
LINE
  8
0
 62
     0
 10
34.8267
 20
34.579
 30
0.0
 11
34.6901
 21
34.5053
 31
0.0
  0
LINE
  8
0
 62
     0
 10
34.6901
 20
34.5053
 30
0.0
 11
34.5536
 21
34.4337
 31
0.0
  0
LINE
  8
0
 62
     0
 10
34.5536
 20
34.4337
 30
0.0
 11
34.4176
 21
34.3599
 31
0.0
  0
LINE
  8
0
 62
     0
 10
34.4176
 20
34.3599
 30
0.0
 11
34.2796
 21
34.2876
 31
0.0
  0
LINE
  8
0
 62
     0
 10
34.2796
 20
34.2876
 30
0.0
 11
33.8147
 21
32.7367
 31
0.0
  0
LINE
  8
0
 62
     0
 10
33.8147
 20
32.7367
 30
0.0
 11
33.3481
 21
31.186
 31
0.0
  0
LINE
  8
0
 62
     0
 10
33.3481
 20
31.186
 30
0.0
 11
32.8815
 21
29.6339
 31
0.0
  0
LINE
  8
0
 62
     0
 10
32.8815
 20
29.6339
 30
0.0
 11
32.4153
 21
28.0832
 31
0.0
  0
LINE
  8
0
 62
     0
 10
32.4153
 20
28.0832
 30
0.0
 11
30.5747
 21
27.309
 31
0.0
  0
LINE
  8
0
 62
     0
 10
30.5747
 20
27.309
 30
0.0
 11
28.7339
 21
26.5342
 31
0.0
  0
LINE
  8
0
 62
     0
 10
28.7339
 20
26.5342
 30
0.0
 11
26.8917
 21
25.7597
 31
0.0
  0
LINE
  8
0
 62
     0
 10
26.8917
 20
25.7597
 30
0.0
 11
25.05
 21
24.986
 31
0.0
  0
LINE
  8
0
 62
     0
 10
25.05
 20
24.986
 30
0.0
 11
24.8357
 21
26.9771
 31
0.0
  0
LINE
  8
0
 62
     0
 10
24.8357
 20
26.9771
 30
0.0
 11
24.6218
 21
28.9712
 31
0.0
  0
LINE
  8
0
 62
     0
 10
24.6218
 20
28.9712
 30
0.0
 11
24.4085
 21
30.9632
 31
0.0
  0
LINE
  8
0
 62
     0
 10
24.4085
 20
30.9632
 30
0.0
 11
24.1944
 21
32.956
 31
0.0
  0
LINE
  8
0
 62
     0
 10
24.1944
 20
32.956
 30
0.0
 11
26.1317
 21
33.7778
 31
0.0
  0
LINE
  8
0
 62
     0
 10
26.1317
 20
33.7778
 30
0.0
 11
28.0685
 21
34.6013
 31
0.0
  0
LINE
  8
0
 62
     0
 10
28.0685
 20
34.6013
 30
0.0
 11
30.0061
 21
35.4236
 31
0.0
  0
LINE
  8
0
 62
     0
 10
30.0061
 20
35.4236
 30
0.0
 11
31.9429
 21
36.2464
 31
0.0
  0
LINE
  8
0
 62
     0
 10
31.9429
 20
36.2464
 30
0.0
 11
32.0175
 21
36.6771
 31
0.0
  0
LINE
  8
0
 62
     0
 10
32.0175
 20
36.6771
 30
0.0
 11
32.0921
 21
37.1072
 31
0.0
  0
LINE
  8
0
 62
     0
 10
32.0921
 20
37.1072
 30
0.0
 11
32.1681
 21
37.5379
 31
0.0
  0
LINE
  8
0
 62
     0
 10
32.1681
 20
37.5379
 30
0.0
 11
32.241
 21
37.9679
 31
0.0
  0
LINE
  8
0
 62
     0
 10
32.241
 20
37.9679
 30
0.0
 11
30.1817
 21
37.3961
 31
0.0
  0
LINE
  8
0
 62
     0
 10
30.1817
 20
37.3961
 30
0.0
 11
28.1221
 21
36.8225
 31
0.0
  0
LINE
  8
0
 62
     0
 10
28.1221
 20
36.8225
 30
0.0
 11
26.0635
 21
36.249
 31
0.0
  0
LINE
  8
0
 62
     0
 10
26.0635
 20
36.249
 30
0.0
 11
24.0039
 21
35.6761
 31
0.0
  0
LINE
  8
0
 62
     0
 10
24.0039
 20
35.6761
 30
0.0
 11
23.989
 21
35.5811
 31
0.0
  0
LINE
  8
0
 62
     0
 10
23.989
 20
35.5811
 30
0.0
 11
23.9742
 21
35.4882
 31
0.0
  0
LINE
  8
0
 62
     0
 10
23.9742
 20
35.4882
 30
0.0
 11
23.9606
 21
35.3933
 31
0.0
  0
LINE
  8
0
 62
     0
 10
23.9606
 20
35.3933
 30
0.0
 11
23.9469
 21
35.2989
 31
0.0
  0
LINE
  8
0
 62
     0
 10
23.9469
 20
35.2989
 30
0.0
 11
23.7567
 21
37.0724
 31
0.0
  0
LINE
  8
0
 62
     0
 10
23.7567
 20
37.0724
 30
0.0
 11
23.5663
 21
38.8449
 31
0.0
  0
LINE
  8
0
 62
     0
 10
23.5663
 20
38.8449
 30
0.0
 11
23.3785
 21
40.6183
 31
0.0
  0
LINE
  8
0
 62
     0
 10
23.3785
 20
40.6183
 30
0.0
 11
23.1881
 21
42.3919
 31
0.0
  0
LINE
  8
0
 62
     0
 10
23.1881
 20
42.3919
 30
0.0
 11
23.6446
 21
42.3818
 31
0.0
  0
LINE
  8
0
 62
     0
 10
23.6446
 20
42.3818
 30
0.0
 11
24.101
 21
42.3599
 31
0.0
  0
LINE
  8
0
 62
     0
 10
24.101
 20
42.3599
 30
0.0
 11
24.5539
 21
42.3282
 31
0.0
  0
LINE
  8
0
 62
     0
 10
24.5539
 20
42.3282
 30
0.0
 11
25.0053
 21
42.2858
 31
0.0
  0
LINE
  8
0
 62
     0
 10
25.0053
 20
42.2858
 30
0.0
 11
25.0161
 21
42.6804
 31
0.0
  0
LINE
  8
0
 62
     0
 10
25.0161
 20
42.6804
 30
0.0
 11
25.0286
 21
43.0746
 31
0.0
  0
LINE
  8
0
 62
     0
 10
25.0286
 20
43.0746
 30
0.0
 11
25.0399
 21
43.4678
 31
0.0
  0
LINE
  8
0
 62
     0
 10
25.0399
 20
43.4678
 30
0.0
 11
25.0511
 21
43.8621
 31
0.0
  0
LINE
  8
0
 62
     0
 10
25.0511
 20
43.8621
 30
0.0
 11
25.8821
 21
43.7101
 31
0.0
  0
LINE
  8
0
 62
     0
 10
25.8821
 20
43.7101
 30
0.0
 11
26.7129
 21
43.5572
 31
0.0
  0
LINE
  8
0
 62
     0
 10
26.7129
 20
43.5572
 30
0.0
 11
27.5424
 21
43.4043
 31
0.0
  0
LINE
  8
0
 62
     0
 10
27.5424
 20
43.4043
 30
0.0
 11
28.3717
 21
43.2503
 31
0.0
  0
LINE
  8
0
 62
     0
 10
28.3717
 20
43.2503
 30
0.0
 11
28.2112
 21
43.4082
 31
0.0
  0
LINE
  8
0
 62
     0
 10
28.2112
 20
43.4082
 30
0.0
 11
28.0499
 21
43.5663
 31
0.0
  0
LINE
  8
0
 62
     0
 10
28.0499
 20
43.5663
 30
0.0
 11
27.8892
 21
43.7238
 31
0.0
  0
LINE
  8
0
 62
     0
 10
27.8892
 20
43.7238
 30
0.0
 11
27.7287
 21
43.8818
 31
0.0
  0
LINE
  8
0
 62
     0
 10
27.7287
 20
43.8818
 30
0.0
 11
28.626
 21
44.011
 31
0.0
  0
LINE
  8
0
 62
     0
 10
28.626
 20
44.011
 30
0.0
 11
29.5222
 21
44.1417
 31
0.0
  0
LINE
  8
0
 62
     0
 10
29.5222
 20
44.1417
 30
0.0
 11
30.419
 21
44.2725
 31
0.0
  0
LINE
  8
0
 62
     0
 10
30.419
 20
44.2725
 30
0.0
 11
31.3146
 21
44.4028
 31
0.0
  0
LINE
  8
0
 62
     0
 10
31.3146
 20
44.4028
 30
0.0
 11
29.3374
 21
45.0722
 31
0.0
  0
LINE
  8
0
 62
     0
 10
29.3374
 20
45.0722
 30
0.0
 11
27.286
 21
45.5644
 31
0.0
  0
LINE
  8
0
 62
     0
 10
27.286
 20
45.5644
 30
0.0
 11
25.1683
 21
45.8668
 31
0.0
  0
LINE
  8
0
 62
     0
 10
25.1683
 20
45.8668
 30
0.0
 11
22.9903
 21
45.9703
 31
0.0
  0
LINE
  8
0
 62
     0
 10
22.9903
 20
45.9703
 30
0.0
 11
14.0504
 21
44.1619
 31
0.0
  0
LINE
  8
0
 62
     0
 10
14.0504
 20
44.1619
 30
0.0
 11
6.74219
 21
39.2315
 31
0.0
  0
LINE
  8
0
 62
     0
 10
6.74219
 20
39.2315
 30
0.0
 11
1.81342
 21
31.926
 31
0.0
  0
LINE
  8
0
 62
     0
 10
1.81342
 20
31.926
 30
0.0
 11
0
 21
22.9849
 31
0.0
  0
LINE
  8
0
 62
     0
 10
0
 20
22.9849
 30
0.0
 11
0
 21
22.9849
 31
0.0
  0
ENDSEC
  0
EOF
